  0
SECTION
  2
HEADER
  9
$ACADVER
  1
AC1009
  9
$INSBASE
 10
0
 20
0
 30
0
  9
$EXTMIN
 10
0
 20
0
  9
$EXTMAX
 10
59400
 20
42000
  9
$LIMMIN
 10
0
 20
0
  9
$LIMMAX
 10
59400
 20
42000
  9
$LTSCALE
 40
100
  0
ENDSEC
  0
SECTION
  2
TABLES
  0
TABLE
  2
LTYPE
 70
     9
  0
LTYPE
  2
CONTINUOUS
 70
    64
  3
実線
 72
    65
 73
     0
 40
0.0
  0
LTYPE
  2
DASHED1
 70
    64
  3
--  --  --  --  --  --  --  --  
 72
    65
 73
     2
 40
2.5
 49
1.25
 49
-1.25
  0
LTYPE
  2
DASHED2
 70
    64
  3
----    ----    ----    ----    
 72
    65
 73
     2
 40
5.0
 49
2.5
 49
-2.5
  0
LTYPE
  2
DASHED3
 70
    64
  3
------  ------  ------  ------  
 72
    65
 73
     2
 40
5.0
 49
3.75
 49
-1.25
  0
LTYPE
  2
CENTER1
 70
    64
  3
----- - ----- - ----- - ----- - 
 72
    65
 73
     4
 40
10.0
 49
6.25
 49
-1.25
 49
1.25
 49
-1.25
  0
LTYPE
  2
CENTER2
 70
    64
  3
----------  --  ----------  --  
 72
    65
 73
     4
 40
20.0
 49
12.5
 49
-2.5
 49
2.5
 49
-2.5
  0
LTYPE
  2
PHANTOM1
 70
    64
  3
--- - - --- - - --- - - --- - - 
 72
    65
 73
     6
 40
10.0
 49
3.25
 49
-1.25
 49
1.25
 49
-1.25
 49
1.25
 49
-1.25
  0
LTYPE
  2
PHANTOM2
 70
    64
  3
--------  -  -  --------  -  -  
 72
    65
 73
     6
 40
20.0
 49
10.0
 49
-2.5
 49
1.25
 49
-2.5
 49
1.25
 49
-2.5
  0
LTYPE
  2
DOT
 70
    64
  3
-   -   -   -   -   -   -   -   
 72
    65
 73
     2
 40
2.5
 49
0.625
 49
-1.875
  0
LTYPE
  2
DUMMY
 70
    64
  3
ダミー
 72
    65
 73
     0
 40
0.0
  0
LTYPE
  2
RAND1
 70
    64
  3
ランダム線1
 72
    65
 73
     4
 40
10.0
 49
1.0
 49
-2.0
 49
3.0
 49
-4.0
  0
LTYPE
  2
RAND2
 70
    64
  3
ランダム線2
 72
    65
 73
     4
 40
14.0
 49
2.0
 49
-3.0
 49
4.0
 49
-5.0
  0
LTYPE
  2
RAND3
 70
    64
  3
ランダム線3
 72
    65
 73
     4
 40
18.0
 49
3.0
 49
-4.0
 49
5.0
 49
-6.0
  0
LTYPE
  2
RAND4
 70
    64
  3
ランダム線4
 72
    65
 73
     4
 40
22.0
 49
4.0
 49
-5.0
 49
6.0
 49
-7.0
  0
LTYPE
  2
RAND5
 70
    64
  3
ランダム線5
 72
    65
 73
     4
 40
26.0
 49
5.0
 49
-6.0
 49
7.0
 49
-8.0
  0
LTYPE
  2
LONG1
 70
    64
  3
----------  --  ----------  --  
 72
    65
 73
     4
 40
40.0
 49
32.5
 49
-2.5
 49
2.5
 49
-2.5
  0
LTYPE
  2
LONG2
 70
    64
  3
--------  -  -  --------  -  -  
 72
    65
 73
     6
 40
40.0
 49
30.0
 49
-2.5
 49
1.25
 49
-2.5
 49
1.25
 49
-2.5
  0
LTYPE
  2
LONG3
 70
    64
  3
+++++++++++++++..+++++++++++++++
 72
    65
 73
     2
 40
40.0
 49
37.5
 49
-2.5
  0
LTYPE
  2
LONG4
 70
    64
  3
+++++++++++++++..+++++++++++++++
 72
    65
 73
     2
 40
80.0
 49
75.0
 49
-5.0
  0
LTYPE
  2
LONG5
 70
    64
  3
----------  --  ----------  --  
 72
    65
 73
     4
 40
60.0
 49
37.5
 49
-7.5
 49
7.5
 49
-7.5
  0
LTYPE
  2
dashed
 70
   64
  3
-------   -------------   ------
 72
   65
 73
    2
 40
7.5
 49
6
 49
-1.5
  0
LTYPE
  2
dashed_spaced
 70
   64
  3
----        --------        ----
 72
   65
 73
    2
 40
12
 49
6
 49
-6
  0
LTYPE
  2
long_dashed_dotted
 70
   64
  3
------------- --- --------------
 72
   65
 73
    4
 40
15.25
 49
12
 49
-1.5
 49
0.25
 49
-1.5
  0
LTYPE
  2
long_dashed_double-dotted
 70
   64
  3
----------- --- --- ------------
 72
   65
 73
    6
 40
17
 49
12
 49
-1.5
 49
0.25
 49
-1.5
 49
0.25
 49
-1.5
  0
LTYPE
  2
long_dashed_triplicate-dotted
 70
   64
  3
--------- --- --- --- ----------
 72
   65
 73
    8
 40
18.75
 49
12
 49
-1.5
 49
0.25
 49
-1.5
 49
0.25
 49
-1.5
 49
0.25
 49
-1.5
  0
LTYPE
  2
dotted
 70
   64
  3
   -       -       -       -    
 72
   65
 73
    2
 40
1.75
 49
0.25
 49
-1.5
  0
LTYPE
  2
chain
 70
   64
  3
-------------- -- --------------
 72
   65
 73
    4
 40
18.5
 49
12
 49
-1.5
 49
3.5
 49
-1.5
  0
LTYPE
  2
chain_double_dash
 70
   64
  3
------------ -- -- -------------
 72
   65
 73
    6
 40
23.5
 49
12
 49
-1.5
 49
3.5
 49
-1.5
 49
3.5
 49
-1.5
  0
LTYPE
  2
dashed_dotted
 70
   64
  3
-----------     -     ----------
 72
   65
 73
    4
 40
9.25
 49
6
 49
-1.5
 49
0.25
 49
-1.5
  0
LTYPE
  2
double-dashed_dotted
 70
   64
  3
------   -----------   -   -----
 72
   65
 73
    6
 40
16.75
 49
6
 49
-1.5
 49
6
 49
-1.5
 49
0.25
 49
-1.5
  0
LTYPE
  2
dashed_double-dotted
 70
   64
  3
---------    -    -    ---------
 72
   65
 73
    6
 40
11
 49
6
 49
-1.5
 49
0.25
 49
-1.5
 49
0.25
 49
-1.5
  0
LTYPE
  2
double-dashed_double-dotted
 70
   64
  3
-----   ---------   -   -   ----
 72
   65
 73
    8
 40
18.5
 49
6
 49
-1.5
 49
6
 49
-1.5
 49
0.25
 49
-1.5
 49
0.25
 49
-1.5
  0
LTYPE
  2
dashed_triplicate-dotted
 70
   64
  3
-------    -    -    -    ------
 72
   65
 73
    8
 40
12.75
 49
6
 49
-1.5
 49
0.25
 49
-1.5
 49
0.25
 49
-1.5
 49
0.25
 49
-1.5
  0
LTYPE
  2
double-dashed_triplicate-dotted
 70
   64
  3
-----  ---------  -  -  -  -----
 72
   65
 73
   10
 40
20.25
 49
6
 49
-1.5
 49
6
 49
-1.5
 49
0.25
 49
-1.5
 49
0.25
 49
-1.5
 49
0.25
 49
-1.5
  0
LTYPE
  2
undefined
 70
   64
  3
--------------------------------
 72
   65
 73
    0
 40
0
  0
LTYPE
  2
DASHED
 70
   64
  3
------     -----------     -----
 72
   65
 73
    2
 40
3
 49
2
 49
-1
  0
LTYPE
  2
DASHDOT
 70
   64
  3
-----------    --    -----------
 72
   65
 73
    4
 40
8.5
 49
6
 49
-1
 49
0.5
 49
-1
  0
LTYPE
  2
CENTER
 70
   64
  3
----------    ----    ----------
 72
   65
 73
    4
 40
50.800000000000004
 49
31.75
 49
-6.3499999999999988
 49
6.3499999999999988
 49
-6.3499999999999988
  0
LTYPE
  2
HIDDEN
 70
   64
  3
-------   -------------   ------
 72
   65
 73
    2
 40
5
 49
4
 49
-1
  0
LTYPE
  2
HIDDEN3
 70
   64
  3
----        --------        ----
 72
   65
 73
    2
 40
0.1
 49
0.05
 49
-0.05
  0
ENDTAB
  0
TABLE
  2
STYLE
  5
3
100
AcDbSymbolTable
 70
     1
  0
STYLE
  5
10
100
AcDbSymbolTableRecord
100
AcDbTextStyleTableRecord
  2
STANDARD
 70
     0
 40
0.0
 41
1.0
 50
0.0
 71
     0
 42
0.2
  3
txt
  4
bigfont.shx
  0
STYLE
  5
26
100
AcDbSymbolTableRecord
100
AcDbTextStyleTableRecord
  2
TATEGAKI
 70
    68
 40
0.0
 41
1.0
 50
0.0
 71
     0
 42
1.0
  3
txt
  4
bigfont.shx
  0
ENDTAB
  0
TABLE
  2
LAYER
 70
   17
  0
LAYER
  2
_0-0_0
 70
   64
 62
    7
  6
CONTINUOUS
  0
LAYER
  2
_0-3_画層1-2
 70
   64
 62
    7
  6
CONTINUOUS
  0
LAYER
  2
_0-4_______
 70
   64
 62
    7
  6
CONTINUOUS
  0
LAYER
  2
_0-5_画層2-1
 70
   64
 62
    7
  6
CONTINUOUS
  0
LAYER
  2
_0-a____
 70
   64
 62
    7
  6
CONTINUOUS
  0
LAYER
  2
_0-b_寸法20
 70
   64
 62
    7
  6
CONTINUOUS
  0
LAYER
  2
_0-d_寸法
 70
   64
 62
    7
  6
CONTINUOUS
  0
LAYER
  2
_0-e_画層3
 70
   64
 62
    7
  6
CONTINUOUS
  0
LAYER
  2
_1-2_図面枠
 70
   64
 62
    7
  6
CONTINUOUS
  0
LAYER
  2
_1-3_画層1
 70
   64
 62
    7
  6
CONTINUOUS
  0
LAYER
  2
_1-4_通り芯
 70
   64
 62
    7
  6
CONTINUOUS
  0
LAYER
  2
_1-5_画層2
 70
   64
 62
    7
  6
CONTINUOUS
  0
LAYER
  2
_1-6_画層1-1
 70
   64
 62
    7
  6
CONTINUOUS
  0
LAYER
  2
_1-8_4JISSHI-4-0SHIN
 70
   64
 62
    7
  6
CONTINUOUS
  0
LAYER
  2
_1-9_2
 70
   64
 62
    7
  6
CONTINUOUS
  0
LAYER
  2
_1-b_1
 70
   64
 62
    7
  6
CONTINUOUS
  0
LAYER
  2
ADD_LINE
 70
   64
 62
    7
  6
CONTINUOUS
  0
ENDTAB
  0
ENDSEC
  0
SECTION
  2
BLOCKS
  0
BLOCK
  2
-000-_ORIGIN
 70
   64
 10
0
 20
0
 30
0
  0
CIRCLE
  8
_0-0_0
  6
CONTINUOUS
 62
    7
 10
0
 20
0
 40
0.5
  0
LINE
  8
_0-0_0
  6
CONTINUOUS
 62
    7
 10
0
 20
0
 11
-1
 21
0
  0
ENDBLK
  0
BLOCK
  2
-001-A$C7FF65A6F
 70
   64
 10
0
 20
0
 30
0
  0
LINE
  8
_0-5_画層2-1
  6
CONTINUOUS
 62
    7
 10
-0.0000414977257606
 20
6.000006621805368
 11
-0.0000414977257606
 21
35.747285977180582
  0
LINE
  8
_0-5_画層2-1
  6
CONTINUOUS
 62
    7
 10
11.999958502259689
 20
35.974949319454034
 11
11.99995850224513
 21
6.0000066218199199
  0
ARC
  8
_0-5_画層2-1
  6
CONTINUOUS
 62
    7
 10
5.9999585022742394
 20
6.0000066218199199
 40
6
 50
180
 51
0
  0
ARC
  8
_0-5_画層2-1
  6
CONTINUOUS
 62
    7
 10
5.9999585022742394
 20
35.911079863391933
 40
6
 50
0
 51
180
  0
ENDBLK
  0
BLOCK
  2
-040-_U253
 70
   64
 10
0
 20
0
 30
0
  0
TEXT
  8
_0-d_寸法
 62
    7
 10
10329.159396354329
 20
-21707.735088622871
 40
300
 41
0.75
 50
90
  1
有効寸法　2,000～3,700程度
  0
ENDBLK
  0
BLOCK
  2
-041-_D45
 70
   64
 10
0
 20
0
 30
0
  0
LINE
  8
_0-d_寸法
  6
CONTINUOUS
 62
    7
 10
11351.71480960282
 20
-16793.449374337149
 11
10486.302253497181
 21
-16793.449374337149
  0
LINE
  8
_0-d_寸法
  6
CONTINUOUS
 62
    7
 10
11389.02367062102
 20
-22593.44937433716
 11
10486.302253497181
 21
-22593.44937433716
  0
LINE
  8
_0-d_寸法
  6
CONTINUOUS
 62
    7
 10
10486.302253497181
 20
-16853.449374337149
 11
10486.302253497181
 21
-22533.44937433716
  0
INSERT
  2
-000-_ORIGIN
  8
_0-d_寸法
 10
10486.302253497181
 20
-16793.449374337149
 41
60
 42
60
 50
90
  0
INSERT
  2
-000-_ORIGIN
  8
_0-d_寸法
 10
10486.302253497181
 20
-22593.44937433716
 41
60
 42
60
 50
270
  0
INSERT
  2
-040-_U253
  8
_0-4_______
 10
0
 20
0
 41
1
 42
1
 50
0
  0
POINT
  8
_0-9_DEFPOINTS
 62
    7
 10
11651.71480960282
 20
-16793.449374337149
  0
POINT
  8
_0-9_DEFPOINTS
 62
    7
 10
11689.02367062102
 20
-22593.44937433716
  0
POINT
  8
_0-9_DEFPOINTS
 62
    7
 10
10486.302253497181
 20
-22593.44937433716
  0
ENDBLK
  0
BLOCK
  2
-042-_U219
 70
   64
 10
0
 20
0
 30
0
  0
TEXT
  8
_0-d_寸法
 62
    7
 10
48570.190113549339
 20
-17976.56976401111
 40
300
 41
0.75
 50
90
  1
4,500
  0
ENDBLK
  0
BLOCK
  2
-043-_D46
 70
   64
 10
0
 20
0
 30
0
  0
LINE
  8
_0-d_寸法
  6
CONTINUOUS
 62
    7
 10
46759.496231955593
 20
-12993.44937433716
 11
48727.332970692201
 21
-12993.44937433716
  0
LINE
  8
_0-d_寸法
  6
CONTINUOUS
 62
    7
 10
47103.091801915667
 20
-21995.404439399372
 11
48727.332970692187
 21
-21995.404439399372
  0
LINE
  8
_0-d_寸法
  6
CONTINUOUS
 62
    7
 10
48727.332970692201
 20
-13053.44937433716
 11
48727.332970692187
 21
-21935.404439399372
  0
INSERT
  2
-000-_ORIGIN
  8
_0-d_寸法
 10
48727.332970692201
 20
-12993.44937433716
 41
60
 42
60
 50
90
  0
INSERT
  2
-000-_ORIGIN
  8
_0-d_寸法
 10
48727.332970692187
 20
-21995.404439399372
 41
60
 42
60
 50
270
  0
INSERT
  2
-042-_U219
  8
_0-4_______
 10
0
 20
0
 41
1
 42
1
 50
0
  0
POINT
  8
_0-9_DEFPOINTS
 62
    7
 10
46459.496231955593
 20
-12993.44937433716
  0
POINT
  8
_0-9_DEFPOINTS
 62
    7
 10
46803.09180191566
 20
-21995.404439399372
  0
POINT
  8
_0-9_DEFPOINTS
 62
    7
 10
48727.332970692187
 20
-21995.404439399372
  0
ENDBLK
  0
BLOCK
  2
-044-_U221
 70
   64
 10
0
 20
0
 30
0
  0
TEXT
  8
_0-d_寸法
 62
    7
 10
49477.332970692201
 20
-22615.855478296831
 40
300
 41
0.75
 50
90
  1
300
  0
ENDBLK
  0
BLOCK
  2
-045-_D48
 70
   64
 10
0
 20
0
 30
0
  0
LINE
  8
_0-d_寸法
  6
CONTINUOUS
 62
    7
 10
47103.091801915667
 20
-21995.404439399372
 11
48727.332970692187
 21
-21995.404439399372
  0
LINE
  8
_0-d_寸法
  6
CONTINUOUS
 62
    7
 10
47083.43044807866
 20
-22593.44937433716
 11
48727.332970692187
 21
-22593.44937433716
  0
LINE
  8
_0-d_寸法
  6
CONTINUOUS
 62
    7
 10
48727.332970692187
 20
-22055.404439399372
 11
48727.332970692187
 21
-22533.44937433716
  0
INSERT
  2
-044-_U221
  8
_0-4_______
 10
0
 20
0
 41
1
 42
1
 50
0
  0
INSERT
  2
-000-_ORIGIN
  8
_0-d_寸法
 10
48727.332970692187
 20
-21995.404439399372
 41
60
 42
60
 50
90
  0
INSERT
  2
-000-_ORIGIN
  8
_0-d_寸法
 10
48727.332970692187
 20
-22593.44937433716
 41
60
 42
60
 50
270
  0
POINT
  8
_0-9_DEFPOINTS
 62
    7
 10
46803.09180191566
 20
-21995.404439399372
  0
POINT
  8
_0-9_DEFPOINTS
 62
    7
 10
46783.43044807866
 20
-22593.44937433716
  0
POINT
  8
_0-9_DEFPOINTS
 62
    7
 10
48727.332970692187
 20
-22593.44937433716
  0
ENDBLK
  0
BLOCK
  2
-046-_U255
 70
   64
 10
0
 20
0
 30
0
  0
TEXT
  8
_0-d_寸法
 62
    7
 10
10329.15939635432
 20
-16008.806517194291
 40
300
 41
0.75
 50
90
  1
1,000～3,000
  0
ENDBLK
  0
BLOCK
  2
-047-_D49
 70
   64
 10
0
 20
0
 30
0
  0
LINE
  8
_0-d_寸法
  6
CONTINUOUS
 62
    7
 10
11224.35346430063
 20
-12993.44937433716
 11
10486.302253497181
 21
-12993.44937433716
  0
LINE
  8
_0-d_寸法
  6
CONTINUOUS
 62
    7
 10
11051.71480960282
 20
-16793.449374337149
 11
10486.302253497181
 21
-16793.449374337149
  0
LINE
  8
_0-d_寸法
  6
CONTINUOUS
 62
    7
 10
10486.302253497181
 20
-13053.44937433716
 11
10486.302253497181
 21
-16733.449374337149
  0
INSERT
  2
-000-_ORIGIN
  8
_0-d_寸法
 10
10486.302253497181
 20
-12993.44937433716
 41
60
 42
60
 50
90
  0
INSERT
  2
-000-_ORIGIN
  8
_0-d_寸法
 10
10486.302253497181
 20
-16793.449374337149
 41
60
 42
60
 50
270
  0
INSERT
  2
-046-_U255
  8
_0-4_______
 10
0
 20
0
 41
1
 42
1
 50
0
  0
POINT
  8
_0-9_DEFPOINTS
 62
    7
 10
11524.353464300621
 20
-12993.44937433716
  0
POINT
  8
_0-9_DEFPOINTS
 62
    7
 10
11351.71480960282
 20
-16793.449374337149
  0
POINT
  8
_0-9_DEFPOINTS
 62
    7
 10
10486.302253497181
 20
-16793.449374337149
  0
ENDBLK
  0
BLOCK
  2
-048-_U254
 70
   64
 10
0
 20
0
 30
0
  0
TEXT
  8
_0-d_寸法
 62
    7
 10
9100.6465747667098
 20
-18892.735088622881
 40
300
 41
0.75
 50
90
  1
4,000～8,000
  0
ENDBLK
  0
BLOCK
  2
-049-_D50
 70
   64
 10
0
 20
0
 30
0
  0
LINE
  8
_0-d_寸法
  6
CONTINUOUS
 62
    7
 10
11079.735297076049
 20
-12993.44937433718
 11
9257.7894319095667
 21
-12993.44937433718
  0
LINE
  8
_0-d_寸法
  6
CONTINUOUS
 62
    7
 10
11389.02367062102
 20
-22593.44937433716
 11
9257.7894319095649
 21
-22593.44937433716
  0
LINE
  8
_0-d_寸法
  6
CONTINUOUS
 62
    7
 10
9257.7894319095667
 20
-13053.44937433718
 11
9257.7894319095649
 21
-22533.44937433716
  0
INSERT
  2
-000-_ORIGIN
  8
_0-d_寸法
 10
9257.7894319095667
 20
-12993.44937433718
 41
60
 42
60
 50
90
  0
INSERT
  2
-000-_ORIGIN
  8
_0-d_寸法
 10
9257.7894319095649
 20
-22593.44937433716
 41
60
 42
60
 50
270
  0
INSERT
  2
-048-_U254
  8
_0-4_______
 10
0
 20
0
 41
1
 42
1
 50
0
  0
POINT
  8
_0-9_DEFPOINTS
 62
    7
 10
11379.735297076049
 20
-12993.44937433718
  0
POINT
  8
_0-9_DEFPOINTS
 62
    7
 10
11689.02367062102
 20
-22593.44937433716
  0
POINT
  8
_0-9_DEFPOINTS
 62
    7
 10
9257.7894319095649
 20
-22593.44937433716
  0
ENDBLK
  0
BLOCK
  2
-050-_U252
 70
   64
 10
0
 20
0
 30
0
  0
TEXT
  8
_0-d_寸法
 62
    7
 10
30128.79429517372
 20
-13837.0032073658
 40
300
 41
0.75
 50
90
  1
弛度：500以上
  0
ENDBLK
  0
BLOCK
  2
-051-_D52
 70
   64
 10
0
 20
0
 30
0
  0
LINE
  8
_0-d_寸法
  6
CONTINUOUS
 62
    7
 10
29015.975208967462
 20
-13993.449374337129
 11
29390.286204393142
 21
-13993.449374337129
  0
LINE
  8
_0-d_寸法
  6
CONTINUOUS
 62
    7
 10
29015.975208967462
 20
-12993.44937433716
 11
29390.286204393142
 21
-12993.44937433716
  0
LINE
  8
_0-d_寸法
  6
CONTINUOUS
 62
    7
 10
29390.286204393142
 20
-13933.449374337129
 11
29390.286204393142
 21
-13053.44937433716
  0
INSERT
  2
-050-_U252
  8
_0-4_______
 10
0
 20
0
 41
1
 42
1
 50
0
  0
INSERT
  2
-000-_ORIGIN
  8
_0-d_寸法
 10
29390.286204393142
 20
-13993.449374337129
 41
60
 42
60
 50
270
  0
INSERT
  2
-000-_ORIGIN
  8
_0-d_寸法
 10
29390.286204393142
 20
-12993.44937433716
 41
60
 42
60
 50
90
  0
POINT
  8
_0-9_DEFPOINTS
 62
    7
 10
28715.975208967462
 20
-13993.449374337129
  0
POINT
  8
_0-9_DEFPOINTS
 62
    7
 10
28715.975208967462
 20
-12993.44937433716
  0
POINT
  8
_0-9_DEFPOINTS
 62
    7
 10
29390.286204393142
 20
-12993.44937433716
  0
ENDBLK
  0
BLOCK
  2
-052-_U223
 70
   64
 10
0
 20
0
 30
0
  0
TEXT
  8
_0-d_寸法
 62
    7
 10
46392.470040812972
 20
-16587.139331332201
 40
300
 41
0.75
 50
90
  1
500
  0
ENDBLK
  0
BLOCK
  2
-053-_D53
 70
   64
 10
0
 20
0
 30
0
  0
LINE
  8
_0-d_寸法
  6
CONTINUOUS
 62
    7
 10
45862.375882766377
 20
-16765.710759903621
 11
46492.470040812957
 21
-16765.710759903621
  0
LINE
  8
_0-d_寸法
  6
CONTINUOUS
 62
    7
 10
45862.375882766377
 20
-15765.71075990365
 11
46492.470040812957
 21
-15765.71075990365
  0
LINE
  8
_0-d_寸法
  6
CONTINUOUS
 62
    7
 10
46492.470040812957
 20
-16705.710759903621
 11
46492.470040812957
 21
-15825.710759903648
  0
INSERT
  2
-000-_ORIGIN
  8
_0-d_寸法
 10
46492.470040812957
 20
-16765.710759903621
 41
60
 42
60
 50
270
  0
INSERT
  2
-000-_ORIGIN
  8
_0-d_寸法
 10
46492.470040812957
 20
-15765.71075990365
 41
60
 42
60
 50
90
  0
INSERT
  2
-052-_U223
  8
_0-4_______
 10
0
 20
0
 41
1
 42
1
 50
0
  0
POINT
  8
_0-9_DEFPOINTS
 62
    7
 10
45562.375882766377
 20
-16765.710759903621
  0
POINT
  8
_0-9_DEFPOINTS
 62
    7
 10
45562.375882766377
 20
-15765.71075990365
  0
POINT
  8
_0-9_DEFPOINTS
 62
    7
 10
46492.470040812957
 20
-15765.71075990365
  0
ENDBLK
  0
BLOCK
  2
-054-_U250
 70
   64
 10
0
 20
0
 30
0
  0
TEXT
  8
_0-d_寸法
 62
    7
 10
27857.686238174188
 20
-30269.229787801025
 40
300
 41
0.75
 50
0
  1
18,000以下
  0
ENDBLK
  0
BLOCK
  2
-055-_D54
 70
   64
 10
0
 20
0
 30
0
  0
LINE
  8
_0-d_寸法
  6
CONTINUOUS
 62
    7
 10
11969.11480960273
 20
-28395.387412850159
 11
11969.11480960273
 21
-30426.372644943895
  0
LINE
  8
_0-d_寸法
  6
CONTINUOUS
 62
    7
 10
45469.11480960279
 20
-28653.970739935641
 11
45469.11480960279
 21
-30426.372644943895
  0
LINE
  8
_0-d_寸法
  6
CONTINUOUS
 62
    7
 10
12029.11480960273
 20
-30426.372644943895
 11
45409.11480960279
 21
-30426.372644943895
  0
INSERT
  2
-000-_ORIGIN
  8
_0-d_寸法
 10
11969.11480960273
 20
-30426.372644943895
 41
60
 42
60
 50
180
  0
INSERT
  2
-000-_ORIGIN
  8
_0-d_寸法
 10
45469.11480960279
 20
-30426.372644943895
 41
60
 42
60
 50
0
  0
INSERT
  2
-054-_U250
  8
_0-4_______
 10
0
 20
0
 41
1
 42
1
 50
0
  0
POINT
  8
_0-9_DEFPOINTS
 62
    7
 10
11969.11480960273
 20
-28095.387412850159
  0
POINT
  8
_0-9_DEFPOINTS
 62
    7
 10
45469.11480960279
 20
-28353.970739935641
  0
POINT
  8
_0-9_DEFPOINTS
 62
    7
 10
45469.11480960279
 20
-30426.372644943895
  0
ENDBLK
  0
BLOCK
  2
-056-_U248
 70
   64
 10
0
 20
0
 30
0
  0
TEXT
  8
_0-b_寸法20
 62
    7
 10
34785.71831440369
 20
-39050.605071390331
 40
300
 41
0.75
 50
90
  1
350
  0
ENDBLK
  0
BLOCK
  2
-057-_D55
 70
   64
 10
0
 20
0
 30
0
  0
LINE
  8
_0-b_寸法20
  6
CONTINUOUS
 62
    7
 10
33473.237696641299
 20
-37854.176499961781
 11
34885.718314403683
 21
-37854.176499961781
  0
LINE
  8
_0-b_寸法20
  6
CONTINUOUS
 62
    7
 10
34153.496307662113
 20
-39604.176499961759
 11
34885.718314403683
 21
-39604.176499961759
  0
LINE
  8
_0-b_寸法20
  6
CONTINUOUS
 62
    7
 10
34885.718314403683
 20
-37914.176499961781
 11
34885.718314403683
 21
-39544.176499961759
  0
INSERT
  2
-000-_ORIGIN
  8
_0-b_寸法20
 10
34885.718314403683
 20
-37854.176499961781
 41
60
 42
60
 50
90
  0
INSERT
  2
-000-_ORIGIN
  8
_0-b_寸法20
 10
34885.718314403683
 20
-39604.176499961759
 41
60
 42
60
 50
270
  0
INSERT
  2
-056-_U248
  8
_0-4_______
 10
0
 20
0
 41
1
 42
1
 50
0
  0
POINT
  8
_0-9_DEFPOINTS
 62
    7
 10
33173.237696641292
 20
-37854.176499961781
  0
POINT
  8
_0-9_DEFPOINTS
 62
    7
 10
33853.496307662113
 20
-39604.176499961759
  0
POINT
  8
_0-9_DEFPOINTS
 62
    7
 10
34885.718314403683
 20
-39604.176499961759
  0
ENDBLK
  0
BLOCK
  2
-058-_U243
 70
   64
 10
0
 20
0
 30
0
  0
TEXT
  8
_0-b_寸法20
 62
    7
 10
25321.259550999519
 20
-37344.021301414687
 40
300
 41
0.75
 50
90
  1
200
  0
ENDBLK
  0
BLOCK
  2
-059-_D56
 70
   64
 10
0
 20
0
 30
0
  0
LINE
  8
_0-b_寸法20
  6
CONTINUOUS
 62
    7
 10
24318.45873951765
 20
-36522.592729986238
 11
24782.797337600441
 21
-36522.592729986238
  0
LINE
  8
_0-b_寸法20
  6
CONTINUOUS
 62
    7
 10
24318.45873951765
 20
-37522.592729986092
 11
24782.797337600441
 21
-37522.592729986092
  0
LINE
  8
_0-b_寸法20
  6
CONTINUOUS
 62
    7
 10
24782.797337600441
 20
-36582.592729986252
 11
24782.797337600441
 21
-37462.592729986092
  0
INSERT
  2
-058-_U243
  8
_0-4_______
 10
0
 20
0
 41
1
 42
1
 50
0
  0
INSERT
  2
-000-_ORIGIN
  8
_0-b_寸法20
 10
24782.797337600441
 20
-36522.592729986238
 41
60
 42
60
 50
90
  0
INSERT
  2
-000-_ORIGIN
  8
_0-b_寸法20
 10
24782.797337600441
 20
-37522.592729986092
 41
60
 42
60
 50
270
  0
POINT
  8
_0-9_DEFPOINTS
 62
    7
 10
24018.45873951765
 20
-36522.592729986238
  0
POINT
  8
_0-9_DEFPOINTS
 62
    7
 10
24018.45873951765
 20
-37522.592729986092
  0
POINT
  8
_0-9_DEFPOINTS
 62
    7
 10
24782.797337600441
 20
-37522.592729986092
  0
ENDBLK
  0
BLOCK
  2
-060-_U244
 70
   64
 10
0
 20
0
 30
0
  0
TEXT
  8
_0-b_寸法20
 62
    7
 10
19116.43087768133
 20
-38963.71291819738
 40
300
 41
0.75
 50
90
  1
180
  0
ENDBLK
  0
BLOCK
  2
-061-_D57
 70
   64
 10
0
 20
0
 30
0
  0
LINE
  8
_0-b_寸法20
  6
CONTINUOUS
 62
    7
 10
18463.630066199461
 20
-38766.212918197329
 11
18727.968664282249
 21
-38766.212918197329
  0
LINE
  8
_0-b_寸法20
  6
CONTINUOUS
 62
    7
 10
18263.630066199461
 20
-39126.212918197351
 11
18727.968664282249
 21
-39126.212918197351
  0
LINE
  8
_0-b_寸法20
  6
CONTINUOUS
 62
    7
 10
18727.968664282249
 20
-38826.212918197329
 11
18727.968664282249
 21
-39066.212918197343
  0
INSERT
  2
-060-_U244
  8
_0-4_______
 10
0
 20
0
 41
1
 42
1
 50
0
  0
INSERT
  2
-000-_ORIGIN
  8
_0-b_寸法20
 10
18727.968664282249
 20
-38766.212918197329
 41
60
 42
60
 50
90
  0
INSERT
  2
-000-_ORIGIN
  8
_0-b_寸法20
 10
18727.968664282249
 20
-39126.212918197351
 41
60
 42
60
 50
270
  0
POINT
  8
_0-9_DEFPOINTS
 62
    7
 10
18163.630066199461
 20
-38766.212918197329
  0
POINT
  8
_0-9_DEFPOINTS
 62
    7
 10
17963.630066199461
 20
-39126.212918197351
  0
POINT
  8
_0-9_DEFPOINTS
 62
    7
 10
18727.968664282249
 20
-39126.212918197351
  0
ENDBLK
  0
BLOCK
  2
-062-_U245
 70
   64
 10
0
 20
0
 30
0
  0
TEXT
  8
_0-b_寸法20
 62
    7
 10
23839.864202162331
 20
-37360.092729986121
 40
300
 41
0.75
 50
90
  1
150
  0
ENDBLK
  0
BLOCK
  2
-063-_D58
 70
   64
 10
0
 20
0
 30
0
  0
LINE
  8
_0-b_寸法20
  6
CONTINUOUS
 62
    7
 10
22837.063390680451
 20
-36522.592729986238
 11
23301.401988763238
 21
-36522.592729986238
  0
LINE
  8
_0-b_寸法20
  6
CONTINUOUS
 62
    7
 10
22837.063390680451
 20
-37272.592729986252
 11
23301.401988763238
 21
-37272.592729986252
  0
LINE
  8
_0-b_寸法20
  6
CONTINUOUS
 62
    7
 10
23301.401988763238
 20
-36582.592729986252
 11
23301.401988763238
 21
-37212.592729986238
  0
INSERT
  2
-062-_U245
  8
_0-4_______
 10
0
 20
0
 41
1
 42
1
 50
0
  0
INSERT
  2
-000-_ORIGIN
  8
_0-b_寸法20
 10
23301.401988763238
 20
-36522.592729986238
 41
60
 42
60
 50
90
  0
INSERT
  2
-000-_ORIGIN
  8
_0-b_寸法20
 10
23301.401988763238
 20
-37272.592729986252
 41
60
 42
60
 50
270
  0
POINT
  8
_0-9_DEFPOINTS
 62
    7
 10
22537.063390680451
 20
-36522.592729986238
  0
POINT
  8
_0-9_DEFPOINTS
 62
    7
 10
22537.063390680451
 20
-37272.592729986252
  0
POINT
  8
_0-9_DEFPOINTS
 62
    7
 10
23301.401988763238
 20
-37272.592729986252
  0
ENDBLK
  0
BLOCK
  2
-064-_U246
 70
   64
 10
0
 20
0
 30
0
  0
TEXT
  8
_0-b_寸法20
 62
    7
 10
10389.55442269698
 20
-38358.012625355681
 40
300
 41
0.75
 50
90
  1
120
  0
ENDBLK
  0
BLOCK
  2
-065-_D59
 70
   64
 10
0
 20
0
 30
0
  0
LINE
  8
_0-b_寸法20
  6
CONTINUOUS
 62
    7
 10
10933.901247512331
 20
-37720.512625355681
 11
10511.423114545831
 21
-37720.512625355681
  0
LINE
  8
_0-b_寸法20
  6
CONTINUOUS
 62
    7
 10
10933.901247512331
 20
-38320.512625355681
 11
10511.423114545831
 21
-38320.512625355681
  0
LINE
  8
_0-b_寸法20
  6
CONTINUOUS
 62
    7
 10
10511.423114545831
 20
-37780.512625355681
 11
10511.423114545831
 21
-38260.512625355681
  0
INSERT
  2
-064-_U246
  8
_0-4_______
 10
0
 20
0
 41
1
 42
1
 50
0
  0
INSERT
  2
-000-_ORIGIN
  8
_0-b_寸法20
 10
10511.423114545831
 20
-37720.512625355681
 41
60
 42
60
 50
90
  0
INSERT
  2
-000-_ORIGIN
  8
_0-b_寸法20
 10
10511.423114545831
 20
-38320.512625355681
 41
60
 42
60
 50
270
  0
POINT
  8
_0-9_DEFPOINTS
 62
    7
 10
11233.901247512331
 20
-37720.512625355681
  0
POINT
  8
_0-9_DEFPOINTS
 62
    7
 10
11233.901247512331
 20
-38320.512625355681
  0
POINT
  8
_0-9_DEFPOINTS
 62
    7
 10
10511.423114545831
 20
-38320.512625355681
  0
ENDBLK
  0
BLOCK
  2
-066-_U247
 70
   64
 10
0
 20
0
 30
0
  0
TEXT
  8
_0-b_寸法20
 62
    7
 10
5167.5217627123202
 20
-38411.660963640083
 40
300
 41
0.75
 50
90
  1
120
  0
ENDBLK
  0
BLOCK
  2
-067-_D60
 70
   64
 10
0
 20
0
 30
0
  0
LINE
  8
_0-b_寸法20
  6
CONTINUOUS
 62
    7
 10
5678.4621090779037
 20
-37720.512625355681
 11
5255.9839761114054
 21
-37720.512625355681
  0
LINE
  8
_0-b_寸法20
  6
CONTINUOUS
 62
    7
 10
5678.4621090779037
 20
-38320.512625355681
 11
5255.9839761114054
 21
-38320.512625355681
  0
LINE
  8
_0-b_寸法20
  6
CONTINUOUS
 62
    7
 10
5255.9839761114054
 20
-37780.512625355681
 11
5255.9839761114054
 21
-38260.512625355681
  0
INSERT
  2
-066-_U247
  8
_0-4_______
 10
0
 20
0
 41
1
 42
1
 50
0
  0
INSERT
  2
-000-_ORIGIN
  8
_0-b_寸法20
 10
5255.9839761114054
 20
-37720.512625355681
 41
60
 42
60
 50
90
  0
INSERT
  2
-000-_ORIGIN
  8
_0-b_寸法20
 10
5255.9839761114054
 20
-38320.512625355681
 41
60
 42
60
 50
270
  0
POINT
  8
_0-9_DEFPOINTS
 62
    7
 10
5978.4621090779037
 20
-37720.512625355681
  0
POINT
  8
_0-9_DEFPOINTS
 62
    7
 10
5978.4621090779037
 20
-38320.512625355681
  0
POINT
  8
_0-9_DEFPOINTS
 62
    7
 10
5255.9839761114054
 20
-38320.512625355681
  0
ENDBLK
  0
BLOCK
  2
-166-_X192
 70
   64
 10
0
 20
0
 30
0
  0
LINE
  8
_0-0_0
  6
CONTINUOUS
 62
    7
 10
11969.114809602501
 20
-25877.483290378121
 11
12419.11480960285
 21
-25427.483290377892
  0
LINE
  8
_0-0_0
  6
CONTINUOUS
 62
    7
 10
11519.11480960261
 20
-26327.483290378001
 11
11969.114809602501
 21
-25877.483290378121
  0
LINE
  8
_0-0_0
  6
CONTINUOUS
 62
    7
 10
11969.114809602501
 20
-24463.269728005049
 11
12419.11480960261
 21
-24013.26972800494
  0
LINE
  8
_0-0_0
  6
CONTINUOUS
 62
    7
 10
11519.11480960261
 20
-24913.269728004929
 11
11969.114809602501
 21
-24463.269728005049
  0
LINE
  8
_0-0_0
  6
CONTINUOUS
 62
    7
 10
11969.11480960261
 20
-23049.056165631981
 11
12424.72160089737
 21
-22593.449374337099
  0
LINE
  8
_0-0_0
  6
CONTINUOUS
 62
    7
 10
11519.114809602501
 20
-23499.05616563209
 11
11969.114809602381
 21
-23049.056165632101
  0
LINE
  8
_0-0_0
  6
CONTINUOUS
 62
    7
 10
11969.11480960261
 20
-26054.259985674413
 11
12419.11480960273
 21
-25604.259985674285
  0
LINE
  8
_0-0_0
  6
CONTINUOUS
 62
    7
 10
11519.11480960273
 20
-26504.259985674402
 11
11969.114809602501
 21
-26054.259985674638
  0
LINE
  8
_0-0_0
  6
CONTINUOUS
 62
    7
 10
11969.11480960261
 20
-24640.046423301341
 11
12419.11480960261
 21
-24190.04642330145
  0
LINE
  8
_0-0_0
  6
CONTINUOUS
 62
    7
 10
11519.114809602501
 20
-25090.04642330145
 11
11969.11480960261
 21
-24640.046423301341
  0
LINE
  8
_0-0_0
  6
CONTINUOUS
 62
    7
 10
11969.11480960261
 20
-23225.832860928262
 11
12469.114809602959
 21
-22725.832860927909
  0
LINE
  8
_0-0_0
  6
CONTINUOUS
 62
    7
 10
11519.11480960261
 20
-23675.832860928382
 11
11969.114809602501
 21
-23225.832860928382
  0
LINE
  8
_0-0_0
  6
CONTINUOUS
 62
    7
 10
11969.11480960273
 20
-26231.036680971265
 11
12419.11480960285
 21
-25781.03668097116
  0
LINE
  8
_0-0_0
  6
CONTINUOUS
 62
    7
 10
11606.702116236551
 20
-26593.449374337331
 11
11969.114809602501
 21
-26231.036680971392
  0
LINE
  8
_0-0_0
  6
CONTINUOUS
 62
    7
 10
11969.11480960273
 20
-24816.82311859808
 11
12419.11480960261
 21
-24366.8231185982
  0
LINE
  8
_0-0_0
  6
CONTINUOUS
 62
    7
 10
11519.11480960261
 20
-25266.8231185982
 11
11969.114809602501
 21
-24816.82311859832
  0
LINE
  8
_0-0_0
  6
CONTINUOUS
 62
    7
 10
11969.11480960273
 20
-23402.609556225008
 11
12469.11480960273
 21
-22902.609556225008
  0
LINE
  8
_0-0_0
  6
CONTINUOUS
 62
    7
 10
11519.114809602501
 20
-23852.609556225361
 11
11969.114809602381
 21
-23402.609556225361
  0
ENDBLK
  0
BLOCK
  2
-167-_U193
 70
   64
 10
0
 20
0
 30
0
  0
TEXT
  8
_0-d_寸法
 62
    7
 10
14482.727924961238
 20
-10576.17056591547
 40
300
 41
0.75
 50
0
  1
主柱KSポール
  0
ENDBLK
  0
BLOCK
  2
-168-_U194
 70
   64
 10
0
 20
0
 30
0
  0
LINE
  8
_0-f_寸法引出
  6
CONTINUOUS
 62
  150
 10
12236.51480960275
 20
-13385.055908167471
 11
14386.727924961249
 21
-10636.17056591547
  0
LINE
  8
_0-f_寸法引出
  6
CONTINUOUS
 62
  150
 10
14386.727924961249
 20
-10636.17056591547
 11
16212.013639246959
 21
-10636.17056591547
  0
ENDBLK
  0
BLOCK
  2
-169-_X195
 70
   64
 10
0
 20
0
 30
0
  0
LINE
  8
_0-0_0
  6
CONTINUOUS
 62
    7
 10
45469.114809602492
 20
-25877.483290377892
 11
45919.114809602608
 21
-25427.483290377771
  0
LINE
  8
_0-0_0
  6
CONTINUOUS
 62
    7
 10
45019.114809602608
 20
-26327.483290377775
 11
45469.114809602383
 21
-25877.483290378001
  0
LINE
  8
_0-0_0
  6
CONTINUOUS
 62
    7
 10
45469.114809602492
 20
-24463.269728004809
 11
45919.114809602608
 21
-24013.2697280047
  0
LINE
  8
_0-0_0
  6
CONTINUOUS
 62
    7
 10
45019.114809602608
 20
-24913.2697280047
 11
45469.114809602492
 21
-24463.269728004809
  0
LINE
  8
_0-0_0
  6
CONTINUOUS
 62
    7
 10
45469.114809602608
 20
-23049.05616563174
 11
45924.721600897261
 21
-22593.449374336979
  0
LINE
  8
_0-0_0
  6
CONTINUOUS
 62
    7
 10
45019.114809602499
 20
-23499.05616563186
 11
45469.114809602383
 21
-23049.05616563186
  0
LINE
  8
_0-0_0
  6
CONTINUOUS
 62
    7
 10
45469.114809602608
 20
-26054.259985674169
 11
45919.114809602608
 21
-25604.259985674285
  0
LINE
  8
_0-0_0
  6
CONTINUOUS
 62
    7
 10
45019.114809602732
 20
-26504.259985674169
 11
45469.114809602492
 21
-26054.259985674413
  0
LINE
  8
_0-0_0
  6
CONTINUOUS
 62
    7
 10
45469.114809602492
 20
-24640.046423301221
 11
45919.114809602608
 21
-24190.046423301221
  0
LINE
  8
_0-0_0
  6
CONTINUOUS
 62
    7
 10
45019.114809602499
 20
-25090.046423301221
 11
45469.114809602492
 21
-24640.046423301221
  0
LINE
  8
_0-0_0
  6
CONTINUOUS
 62
    7
 10
45469.114809602608
 20
-23225.832860928029
 11
45969.114809602848
 21
-22725.832860927909
  0
LINE
  8
_0-0_0
  6
CONTINUOUS
 62
    7
 10
45019.114809602383
 20
-23675.832860928262
 11
45469.114809602383
 21
-23225.832860928382
  0
LINE
  8
_0-0_0
  6
CONTINUOUS
 62
    7
 10
45469.114809602492
 20
-26231.03668097116
 11
45919.114809602608
 21
-25781.036680971039
  0
LINE
  8
_0-0_0
  6
CONTINUOUS
 62
    7
 10
45106.702116236549
 20
-26593.449374337099
 11
45469.114809602383
 21
-26231.036680971265
  0
LINE
  8
_0-0_0
  6
CONTINUOUS
 62
    7
 10
45469.114809602492
 20
-24816.82311859808
 11
45919.114809602608
 21
-24366.823118597971
  0
LINE
  8
_0-0_0
  6
CONTINUOUS
 62
    7
 10
45019.114809602608
 20
-25266.823118597971
 11
45469.114809602492
 21
-24816.82311859808
  0
LINE
  8
_0-0_0
  6
CONTINUOUS
 62
    7
 10
45469.114809602732
 20
-23402.609556224779
 11
45969.114809602732
 21
-22902.609556224779
  0
LINE
  8
_0-0_0
  6
CONTINUOUS
 62
    7
 10
45019.114809602499
 20
-23852.609556225128
 11
45469.114809602383
 21
-23402.609556225128
  0
ENDBLK
  0
BLOCK
  2
-170-_U196
 70
   64
 10
0
 20
0
 30
0
  0
TEXT
  8
_0-d_寸法
 62
    7
 10
12965.407026351078
 20
-19795.989678058591
 40
300
 41
0.75
 50
0
  1
ウインチ
  0
ENDBLK
  0
BLOCK
  2
-171-_U197
 70
   64
 10
0
 20
0
 30
0
  0
LINE
  8
_0-f_寸法引出
  6
CONTINUOUS
 62
  150
 10
11701.71480960271
 20
-21175.394591987861
 11
12869.40702635108
 21
-19855.989678058599
  0
LINE
  8
_0-f_寸法引出
  6
CONTINUOUS
 62
  150
 10
12869.40702635108
 20
-19855.989678058599
 11
13985.40702635108
 21
-19855.989678058599
  0
ENDBLK
  0
BLOCK
  2
-172-_U198
 70
   64
 10
0
 20
0
 30
0
  0
TEXT
  8
_0-d_寸法
 62
    7
 10
46539.199716322932
 20
-19941.927790609101
 40
300
 41
0.75
 50
0.0000000000161035
  1
ウインチ
  0
ENDBLK
  0
BLOCK
  2
-173-_U199
 70
   64
 10
0
 20
0
 30
0
  0
LINE
  8
_0-f_寸法引出
  6
CONTINUOUS
 62
  150
 10
45736.514809601322
 20
-21261.70604595435
 11
46443.199716322953
 21
-20001.92779060913
  0
LINE
  8
_0-f_寸法引出
  6
CONTINUOUS
 62
  150
 10
46443.199716322953
 20
-20001.92779060913
 11
47559.199716322953
 21
-20001.92779060881
  0
ENDBLK
  0
BLOCK
  2
-174-_U200
 70
   64
 10
0
 20
0
 30
0
  0
TEXT
  8
_0-d_寸法
 62
    7
 10
46520.563216318609
 20
-20441.120740875751
 40
300
 41
0.75
 50
0.0000000000161452
  1
（2000K以下）
  0
ENDBLK
  0
BLOCK
  2
-175-_U201
 70
   64
 10
0
 20
0
 30
0
  0
TEXT
  8
_0-d_寸法
 62
    7
 10
21389.429185493271
 20
-12898.614927730579
 40
300
 41
0.75
 50
0
  1
メイン防矢ネット
  0
ENDBLK
  0
BLOCK
  2
-176-_U202
 70
   64
 10
0
 20
0
 30
0
  0
LINE
  8
_0-f_寸法引出
  6
CONTINUOUS
 62
  150
 10
20383.6351349781
 20
-14108.552209947951
 11
21293.429185493271
 21
-12958.614927730579
  0
LINE
  8
_0-f_寸法引出
  6
CONTINUOUS
 62
  150
 10
21293.429185493271
 20
-12958.614927730579
 11
23489.429185493271
 21
-12958.614927730579
  0
ENDBLK
  0
BLOCK
  2
-177-_U203
 70
   64
 10
0
 20
0
 30
0
  0
TEXT
  8
_0-d_寸法
 62
    7
 10
7669.0930480229272
 20
-11866.24782640699
 40
300
 41
0.75
 50
0
  1
SUS製
  0
TEXT
  8
_0-d_寸法
 62
    7
 10
7701.2359051657841
 20
-12366.24782640699
 40
300
 41
0.75
 50
0
  1
トップ越え金具（滑車付）
  0
ENDBLK
  0
BLOCK
  2
-178-_U204
 70
   64
 10
0
 20
0
 30
0
  0
LINE
  8
_0-f_寸法引出
  6
CONTINUOUS
 62
  150
 10
11665.11116148869
 20
-12923.8646936308
 11
11007.23590516578
 21
-12426.24782640699
  0
LINE
  8
_0-f_寸法引出
  6
CONTINUOUS
 62
  150
 10
11007.23590516578
 20
-12426.24782640699
 11
7701.235905165785
 21
-12426.24782640699
  0
ENDBLK
  0
BLOCK
  2
-179-_U205
 70
   64
 10
0
 20
0
 30
0
  0
TEXT
  8
_0-e_画層3
 62
    7
 10
29620.138618343532
 20
-10296.65436254728
 40
416.66666666666663
 41
0.75
 50
0
  1
(昇降式)
  0
ENDBLK
  0
BLOCK
  2
-180-_U206
 70
   64
 10
0
 20
0
 30
0
  0
LINE
  8
_0-f_寸法引出
  6
CONTINUOUS
 62
  150
 10
33307.612212329928
 20
-37195.869130843566
 11
33906.709627689052
 21
-36487.438601261681
  0
LINE
  8
_0-f_寸法引出
  6
CONTINUOUS
 62
  150
 10
33906.709627689052
 20
-36487.438601261681
 11
35805.923913403341
 21
-36487.438601261681
  0
ENDBLK
  0
BLOCK
  2
-181-_U207
 70
   64
 10
0
 20
0
 30
0
  0
TEXT
  8
_1-0_寸法字
 62
    7
 10
34002.709627689052
 20
-36427.438601261667
 40
270
 41
0.7500000000000001
 50
0
  1
アイナットM16
  0
ENDBLK
  0
BLOCK
  2
-182-_U208
 70
   64
 10
0
 20
0
 30
0
  0
LINE
  8
_0-f_寸法引出
  6
CONTINUOUS
 62
  150
 10
33073.237696641321
 20
-38187.987996411932
 11
32417.836908839319
 21
-39182.173462184001
  0
LINE
  8
_0-f_寸法引出
  6
CONTINUOUS
 62
  150
 10
32417.836908839319
 20
-39182.173462184001
 11
30750.051194553602
 21
-39182.173462184001
  0
ENDBLK
  0
BLOCK
  2
-183-_U209
 70
   64
 10
0
 20
0
 30
0
  0
TEXT
  8
_1-0_寸法字
 62
    7
 10
30750.051194553602
 20
-39122.173462184001
 40
270
 41
0.7500000000000001
 50
0
  1
アンカーＭ16
  0
ENDBLK
  0
BLOCK
  2
-184-_U210
 70
   64
 10
0
 20
0
 30
0
  0
TEXT
  8
_1-0_寸法字
 62
    7
 10
31068.265480267895
 20
-39625.782838312101
 40
270
 41
0.7500000000000001
 50
0
  1
ＳＳ400　
  0
ENDBLK
  0
BLOCK
  2
-185-_U211
 70
   64
 10
0
 20
0
 30
0
  0
TEXT
  8
_1-0_寸法字
 62
    7
 10
30234.909544452399
 20
-40016.852354524737
 40
270
 41
0.7500000000000001
 50
0
  1
（溶融亜鉛メッキ）
  0
ENDBLK
  0
BLOCK
  2
-186-_U212
 70
   64
 10
0
 20
0
 30
0
  0
LINE
  8
_0-f_寸法引出
  6
CONTINUOUS
 62
  150
 10
32941.753719668413
 20
-36735.807231796127
 11
32512.90789115704
 21
-36005.855400495639
  0
LINE
  8
_0-f_寸法引出
  6
CONTINUOUS
 62
  150
 10
32512.90789115704
 20
-36005.855400495639
 11
30276.19360544275
 21
-36005.855400495639
  0
ENDBLK
  0
BLOCK
  2
-187-_U213
 70
   64
 10
0
 20
0
 30
0
  0
TEXT
  8
_1-0_寸法字
 62
    7
 10
30276.19360544275
 20
-35945.855400495639
 40
270
 41
0.7500000000000001
 50
0
  1
シャックル12mm
  0
ENDBLK
  0
BLOCK
  2
-188-_U214
 70
   64
 10
0
 20
0
 30
0
  0
LINE
  8
_0-f_寸法引出
  6
CONTINUOUS
 62
  150
 10
33142.363408679201
 20
-35934.894290155331
 11
33741.460824038331
 21
-35226.463760573461
  0
LINE
  8
_0-f_寸法引出
  6
CONTINUOUS
 62
  150
 10
33741.460824038331
 20
-35226.463760573461
 11
36213.460824038331
 21
-35226.463760573461
  0
ENDBLK
  0
BLOCK
  2
-189-_U215
 70
   64
 10
0
 20
0
 30
0
  0
TEXT
  8
_1-0_寸法字
 62
    7
 10
33837.460824038331
 20
-35166.463760573461
 40
270
 41
0.7500000000000001
 50
0
  1
ワイヤークリップ止め
  0
ENDBLK
  0
BLOCK
  2
-190-_U216
 70
   64
 10
0
 20
0
 30
0
  0
TEXT
  8
_1-0_寸法字
 62
    7
 10
34596.470030217963
 20
-35707.413843332761
 40
270
 41
0.7500000000000001
 50
0
  1
×4　
  0
ENDBLK
  0
BLOCK
  2
-191-_U224
 70
   64
 10
0
 20
0
 30
0
  0
TEXT
  8
_1-0_寸法字
 62
    7
 10
19423.578667065962
 20
-36450.986251100519
 40
270
 41
0.7500000000000001
 50
0
  1
滑車φ100
  0
ENDBLK
  0
BLOCK
  2
-192-_U225
 70
   64
 10
0
 20
0
 30
0
  0
LINE
  8
_0-f_寸法引出
  6
CONTINUOUS
 62
  150
 10
22026.072741381729
 20
-36647.882774630998
 11
22760.227220102341
 21
-35563.89989818781
  0
LINE
  8
_0-f_寸法引出
  6
CONTINUOUS
 62
  150
 10
22760.227220102341
 20
-35563.89989818781
 11
23338.370077245199
 21
-35563.89989818781
  0
ENDBLK
  0
BLOCK
  2
-193-_U226
 70
   64
 10
0
 20
0
 30
0
  0
TEXT
  8
_1-0_寸法字
 62
    7
 10
22817.655791530909
 20
-35503.89989818781
 40
270
 41
0.7500000000000001
 50
0
  1
PL9
  0
ENDBLK
  0
BLOCK
  2
-194-_U227
 70
   64
 10
0
 20
0
 30
0
  0
LINE
  8
_0-f_寸法引出
  6
CONTINUOUS
 62
  150
 10
17752.20574541753
 20
-38970.6935364971
 11
16875.251562603538
 21
-38161.606839393469
  0
LINE
  8
_0-f_寸法引出
  6
CONTINUOUS
 62
  150
 10
16875.251562603538
 20
-38161.606839393469
 11
16297.108705460678
 21
-38161.606839393469
  0
ENDBLK
  0
BLOCK
  2
-195-_U228
 70
   64
 10
0
 20
0
 30
0
  0
TEXT
  8
_1-0_寸法字
 62
    7
 10
16258.537276889252
 20
-38101.606839393469
 40
270
 41
0.7500000000000001
 50
0
  1
PL9
  0
ENDBLK
  0
BLOCK
  2
-196-_U229
 70
   64
 10
0
 20
0
 30
0
  0
LINE
  8
_0-f_寸法引出
  6
CONTINUOUS
 62
  150
 10
8813.1100849268842
 20
-38930.236433587641
 11
9409.0518239533267
 21
-40512.443599335456
  0
LINE
  8
_0-f_寸法引出
  6
CONTINUOUS
 62
  150
 10
9409.0518239533267
 20
-40512.443599335456
 11
10423.051823953319
 21
-40512.443599335456
  0
ENDBLK
  0
BLOCK
  2
-197-_U230
 70
   64
 10
0
 20
0
 30
0
  0
TEXT
  8
_1-0_寸法字
 62
    7
 10
9505.0518239533285
 20
-40002.443599335456
 40
270
 41
0.7500000000000001
 50
0
  1
分配金具
  0
TEXT
  8
_1-0_寸法字
 62
    7
 10
9466.4803953818973
 20
-40452.443599335456
 40
270
 41
0.7500000000000001
 50
0
  1
PL12
  0
ENDBLK
  0
BLOCK
  2
-198-_U231
 70
   64
 10
0
 20
0
 30
0
  0
LINE
  8
_0-f_寸法引出
  6
CONTINUOUS
 62
  150
 10
12806.973637706782
 20
-37742.99240235825
 11
13683.92782052077
 21
-36933.905705254612
  0
LINE
  8
_0-f_寸法引出
  6
CONTINUOUS
 62
  150
 10
13683.92782052077
 20
-36933.905705254612
 11
14262.070677663629
 21
-36933.905705254612
  0
ENDBLK
  0
BLOCK
  2
-199-_U232
 70
   64
 10
0
 20
0
 30
0
  0
TEXT
  8
_1-0_寸法字
 62
    7
 10
13741.356391949341
 20
-36873.905705254612
 40
270
 41
0.7500000000000001
 50
0
  1
PL9
  0
ENDBLK
  0
BLOCK
  2
-200-_U233
 70
   64
 10
0
 20
0
 30
0
  0
LINE
  8
_0-f_寸法引出
  6
CONTINUOUS
 62
  150
 10
12893.968303146439
 20
-38135.324380678729
 11
13597.556256027419
 21
-39404.262518012722
  0
LINE
  8
_0-f_寸法引出
  6
CONTINUOUS
 62
  150
 10
13597.556256027419
 20
-39404.262518012722
 11
14175.699113170271
 21
-39404.262518012722
  0
ENDBLK
  0
BLOCK
  2
-201-_U234
 70
   64
 10
0
 20
0
 30
0
  0
TEXT
  8
_1-0_寸法字
 62
    7
 10
13654.98482745599
 20
-39344.262518012729
 40
270
 41
0.7500000000000001
 50
0
  1
PL9
  0
ENDBLK
  0
BLOCK
  2
-202-_U235
 70
   64
 10
0
 20
0
 30
0
  0
LINE
  8
_0-f_寸法引出
  6
CONTINUOUS
 62
  150
 10
6121.6244025180858
 20
-37942.364817234033
 11
5370.6828438047887
 21
-36053.489818565169
  0
LINE
  8
_0-f_寸法引出
  6
CONTINUOUS
 62
  150
 10
5370.6828438047887
 20
-36053.489818565169
 11
3114.6828438047901
 21
-36053.489818565169
  0
ENDBLK
  0
BLOCK
  2
-203-_U236
 70
   64
 10
0
 20
0
 30
0
  0
TEXT
  8
_1-0_寸法字
 62
    7
 10
4259.6317932088523
 20
-35543.489818565169
 40
270
 41
0.7500000000000001
 50
0
  1
滑車φ75
  0
TEXT
  8
_1-0_寸法字
 62
    7
 10
3185.4175074945679
 20
-35993.489818565169
 40
270
 41
0.7500000000000001
 50
0
  1
（べアリング入り）
  0
ENDBLK
  0
BLOCK
  2
-204-_U237
 70
   64
 10
0
 20
0
 30
0
  0
LINE
  8
_0-f_寸法引出
  6
CONTINUOUS
 62
  150
 10
6726.379267716402
 20
-38101.437370720101
 11
5215.6711893573447
 21
-39702.726347838769
  0
LINE
  8
_0-f_寸法引出
  6
CONTINUOUS
 62
  150
 10
5215.6711893573447
 20
-39702.726347838769
 11
4271.0997607859163
 21
-39702.726347838769
  0
ENDBLK
  0
BLOCK
  2
-205-_U238
 70
   64
 10
0
 20
0
 30
0
  0
TEXT
  8
_1-0_寸法字
 62
    7
 10
4257.5997607859163
 20
-39282.726347838769
 40
270
 41
0.7500000000000001
 50
0
  1
貫通BN
  0
TEXT
  8
_1-0_寸法字
 62
    7
 10
4280.7426179287731
 20
-39642.726347838769
 40
270
 41
0.7500000000000001
 50
0
  1
M-16
  0
ENDBLK
  0
BLOCK
  2
-206-_U239
 70
   64
 10
0
 20
0
 30
0
  0
LINE
  8
_0-f_寸法引出
  6
CONTINUOUS
 62
  150
 10
12956.867785371771
 20
-38101.437370720101
 11
13617.74332237518
 21
-38747.761331440881
  0
LINE
  8
_0-f_寸法引出
  6
CONTINUOUS
 62
  150
 10
13617.74332237518
 20
-38747.761331440881
 11
14795.671893803752
 21
-38747.761331440881
  0
ENDBLK
  0
BLOCK
  2
-207-_U240
 70
   64
 10
0
 20
0
 30
0
  0
TEXT
  8
_1-0_寸法字
 62
    7
 10
13700.243322375181
 20
-38327.761331440881
 40
270
 41
0.7500000000000001
 50
0
  1
貫通BN
  0
TEXT
  8
_1-0_寸法字
 62
    7
 10
13713.74332237518
 20
-38687.761331440881
 40
270
 41
0.7500000000000001
 50
0
  1
　M-16
  0
ENDBLK
  0
BLOCK
  2
-208-_U241
 70
   64
 10
0
 20
0
 30
0
  0
LINE
  8
_0-f_寸法引出
  6
CONTINUOUS
 62
  150
 10
12248.91083087444
 20
-37091.829611660563
 11
13125.865013688428
 21
-36282.742914556933
  0
LINE
  8
_0-f_寸法引出
  6
CONTINUOUS
 62
  150
 10
13125.865013688428
 20
-36282.742914556933
 11
13704.00787083129
 21
-36282.742914556933
  0
ENDBLK
  0
BLOCK
  2
-209-_U242
 70
   64
 10
0
 20
0
 30
0
  0
TEXT
  8
_1-0_寸法字
 62
    7
 10
13183.293585116999
 20
-36222.742914556933
 40
270
 41
0.7500000000000001
 50
0
  1
PL9
  0
ENDBLK
  0
BLOCK
  2
-210-_U251
 70
   64
 10
0
 20
0
 30
0
  0
TEXT
  8
_0-0_0
 62
    7
 10
47789.405504206443
 20
-39859.816783941569
 40
300
 41
0.75
 50
0
  1
Ⅲ
  0
ENDBLK
  0
BLOCK
  2
-211-_U256
 70
   64
 10
0
 20
0
 30
0
  0
TEXT
  8
_0-d_寸法
 62
    7
 10
17805.404408914968
 20
-17555.43794986343
 40
300
 41
0.75
 50
0
  1
補助防矢ネット
  0
ENDBLK
  0
BLOCK
  2
-212-_U257
 70
   64
 10
0
 20
0
 30
0
  0
LINE
  8
_0-f_寸法引出
  6
CONTINUOUS
 62
  150
 10
15296.61391155771
 20
-16510.56601958803
 11
17709.404408914968
 21
-17615.43794986343
  0
LINE
  8
_0-f_寸法引出
  6
CONTINUOUS
 62
  150
 10
17709.404408914968
 20
-17615.43794986343
 11
19635.404408914968
 21
-17615.43794986343
  0
ENDBLK
  0
BLOCK
  2
-213-_X258
 70
   64
 10
0
 20
0
 30
0
  0
LINE
  8
_0-0_0
  6
CONTINUOUS
 62
    7
 10
44958
 20
-14691.886018301651
 11
44958
 21
-13734.571785175891
  0
LINE
  8
_0-0_0
  6
CONTINUOUS
 62
    7
 10
44958
 20
-15790.58541220239
 11
44958
 21
-14750.032338919471
  0
LINE
  8
_0-0_0
  6
CONTINUOUS
 62
    7
 10
44704
 20
-15849.044097618989
 11
44704
 21
-13232.049578360689
  0
LINE
  8
_0-0_0
  6
CONTINUOUS
 62
    7
 10
44450
 20
-15878.157010553899
 11
44450
 21
-13257.333984915889
  0
LINE
  8
_0-0_0
  6
CONTINUOUS
 62
    7
 10
44196
 20
-15906.810367083988
 11
44196
 21
-13282.189132828791
  0
LINE
  8
_0-0_0
  6
CONTINUOUS
 62
    7
 10
43942
 20
-15935.004444894901
 11
43942
 21
-13306.615232941169
  0
LINE
  8
_0-0_0
  6
CONTINUOUS
 62
    7
 10
43688
 20
-15962.739517002859
 11
43688
 21
-13330.61249232071
  0
LINE
  8
_0-0_0
  6
CONTINUOUS
 62
    7
 10
43434
 20
-15990.01585176829
 11
43434
 21
-13354.181114269999
  0
LINE
  8
_0-0_0
  6
CONTINUOUS
 62
    7
 10
43180
 20
-15251.861204067449
 11
43180
 21
-13377.32129833524
  0
LINE
  8
_0-0_0
  6
CONTINUOUS
 62
    7
 10
42926
 20
-14434.71392341233
 11
42926
 21
-13400.033240314629
  0
LINE
  8
_0-0_0
  6
CONTINUOUS
 62
    7
 10
42672
 20
-13617.5666427572
 11
42672
 21
-13422.31713226691
  0
LINE
  8
_0-0_0
  6
CONTINUOUS
 62
    7
 10
21590
 20
-16638.161450680869
 11
21590
 21
-15939.84556536407
  0
LINE
  8
_0-0_0
  6
CONTINUOUS
 62
    7
 10
21336
 20
-16626.04985176638
 11
21336
 21
-15122.69828470884
  0
LINE
  8
_0-0_0
  6
CONTINUOUS
 62
    7
 10
21082
 20
-16613.485871744539
 11
21082
 21
-14305.551004053621
  0
LINE
  8
_0-0_0
  6
CONTINUOUS
 62
    7
 10
20828
 20
-16600.469391314458
 11
20828
 21
-13749.603161773442
  0
LINE
  8
_0-0_0
  6
CONTINUOUS
 62
    7
 10
20574
 20
-16587.000286834202
 11
20574
 21
-13734.971221721529
  0
LINE
  8
_0-0_0
  6
CONTINUOUS
 62
    7
 10
20320
 20
-16573.07843031501
 11
20320
 21
-13719.914050686668
  0
LINE
  8
_0-0_0
  6
CONTINUOUS
 62
    7
 10
20066
 20
-16558.703689415241
 11
20066
 21
-13704.431522470672
  0
LINE
  8
_0-0_0
  6
CONTINUOUS
 62
    7
 10
19812
 20
-16543.875927433921
 11
19812
 21
-13688.523507258298
  0
LINE
  8
_0-0_0
  6
CONTINUOUS
 62
    7
 10
19558
 20
-16528.595003304272
 11
19558
 21
-13672.189871611678
  0
LINE
  8
_0-0_0
  6
CONTINUOUS
 62
    7
 10
19304
 20
-16512.86077158706
 11
19304
 21
-13655.430478464839
  0
LINE
  8
_0-0_0
  6
CONTINUOUS
 62
    7
 10
19050
 20
-16496.673082463501
 11
19050
 21
-13638.245187117722
  0
LINE
  8
_0-0_0
  6
CONTINUOUS
 62
    7
 10
18796
 20
-16480.03178172815
 11
18796
 21
-13620.633853230331
  0
LINE
  8
_0-0_0
  6
CONTINUOUS
 62
    7
 10
18542
 20
-16462.93671078156
 11
18542
 21
-13602.596328816719
  0
LINE
  8
_0-0_0
  6
CONTINUOUS
 62
    7
 10
18288
 20
-16445.38770662262
 11
18288
 21
-13584.132462238627
  0
LINE
  8
_0-0_0
  6
CONTINUOUS
 62
    7
 10
18034
 20
-16427.384601840811
 11
18034
 21
-13565.242098199091
  0
LINE
  8
_0-0_0
  6
CONTINUOUS
 62
    7
 10
17780
 20
-16408.92722460796
 11
17780
 21
-13545.925077735819
  0
LINE
  8
_0-0_0
  6
CONTINUOUS
 62
    7
 10
17526
 20
-16390.015398670341
 11
17526
 21
-13526.181238214631
  0
LINE
  8
_0-0_0
  6
CONTINUOUS
 62
    7
 10
17272
 20
-16370.648943339882
 11
17272
 21
-13506.010413322281
  0
LINE
  8
_0-0_0
  6
CONTINUOUS
 62
    7
 10
17018
 20
-16350.827673485619
 11
17018
 21
-13485.412433059682
  0
LINE
  8
_0-0_0
  6
CONTINUOUS
 62
    7
 10
16764
 20
-16330.551399524791
 11
16764
 21
-13464.38712373449
  0
LINE
  8
_0-0_0
  6
CONTINUOUS
 62
    7
 10
16510
 20
-16309.819927413571
 11
16510
 21
-13442.934307953721
  0
LINE
  8
_0-0_0
  6
CONTINUOUS
 62
    7
 10
16256
 20
-16288.63305863785
 11
16256
 21
-13421.05380461638
  0
LINE
  8
_0-0_0
  6
CONTINUOUS
 62
    7
 10
16002.000000000002
 20
-16266.990590203643
 11
16002.000000000002
 21
-13398.745428905531
  0
LINE
  8
_0-0_0
  6
CONTINUOUS
 62
    7
 10
15747.999999999998
 20
-16244.892314627068
 11
15747.999999999998
 21
-13376.00899228052
  0
LINE
  8
_0-0_0
  6
CONTINUOUS
 62
    7
 10
15494
 20
-16222.338019924649
 11
15494
 21
-13352.8443024689
  0
LINE
  8
_0-0_0
  6
CONTINUOUS
 62
    7
 10
15240
 20
-16199.327489602672
 11
15240
 21
-13329.251163458281
  0
LINE
  8
_0-0_0
  6
CONTINUOUS
 62
    7
 10
14986.000000000002
 20
-16175.860502647029
 11
14986.000000000002
 21
-13305.22937548777
  0
LINE
  8
_0-0_0
  6
CONTINUOUS
 62
    7
 10
14732
 20
-16151.936833512242
 11
14732
 21
-13280.778735039721
  0
LINE
  8
_0-0_0
  6
CONTINUOUS
 62
    7
 10
14478
 20
-16127.556252110568
 11
14478
 21
-13255.899034830651
  0
LINE
  8
_0-0_0
  6
CONTINUOUS
 62
    7
 10
14224
 20
-16102.718523800901
 11
14224
 21
-13230.5900638026
  0
LINE
  8
_0-0_0
  6
CONTINUOUS
 62
    7
 10
13969.999999999998
 20
-16077.42340937719
 11
13969.999999999998
 21
-13204.85160711402
  0
LINE
  8
_0-0_0
  6
CONTINUOUS
 62
    7
 10
13716
 20
-16051.670665056972
 11
13716
 21
-13178.683446130421
  0
LINE
  8
_0-0_0
  6
CONTINUOUS
 62
    7
 10
13462
 20
-16025.4600424692
 11
13462
 21
-13152.08535841509
  0
LINE
  8
_0-0_0
  6
CONTINUOUS
 62
    7
 10
13208.000000000002
 20
-15998.79128864236
 11
13208.000000000002
 21
-13125.057117719458
  0
LINE
  8
_0-0_0
  6
CONTINUOUS
 62
    7
 10
12954
 20
-15971.664145991959
 11
12954
 21
-13097.598493973339
  0
LINE
  8
_0-0_0
  6
CONTINUOUS
 62
    7
 10
12700
 20
-15944.07835230793
 11
12700
 21
-13069.70925327501
  0
LINE
  8
_0-0_0
  6
CONTINUOUS
 62
    7
 10
12446
 20
-14666.436198352099
 11
12446
 21
-13026.40367304644
  0
LINE
  8
_0-0_0
  6
CONTINUOUS
 62
    7
 10
12446
 20
-15979.410349633043
 11
12446
 21
-15860.46596534932
  0
LINE
  8
_0-0_0
  6
CONTINUOUS
 62
    7
 10
19258.589425498361
 20
-16510
 11
21767.225366621071
 21
-16510
  0
LINE
  8
_0-0_0
  6
CONTINUOUS
 62
    7
 10
15875.01791414694
 20
-16256
 11
21688.272647169721
 21
-16256
  0
LINE
  8
_0-0_0
  6
CONTINUOUS
 62
    7
 10
13238.331090776401
 20
-16002.000000000002
 11
21609.319927718381
 21
-16002.000000000002
  0
LINE
  8
_0-0_0
  6
CONTINUOUS
 62
    7
 10
43334.218532142491
 20
-15747.999999999998
 11
44988.599406841859
 21
-15747.999999999998
  0
LINE
  8
_0-0_0
  6
CONTINUOUS
 62
    7
 10
12428.084049110381
 20
-15747.999999999998
 11
21530.367208267031
 21
-15747.999999999998
  0
LINE
  8
_0-0_0
  6
CONTINUOUS
 62
    7
 10
43255.265812691141
 20
-15494
 11
44995.510566596407
 21
-15494
  0
LINE
  8
_0-0_0
  6
CONTINUOUS
 62
    7
 10
12418.83151258484
 20
-15494
 11
21451.414488815692
 21
-15494
  0
LINE
  8
_0-0_0
  6
CONTINUOUS
 62
    7
 10
43176.313093239791
 20
-15240
 11
45002.421726350971
 21
-15240
  0
LINE
  8
_0-0_0
  6
CONTINUOUS
 62
    7
 10
12409.578976059311
 20
-15240
 11
21372.461769364349
 21
-15240
  0
LINE
  8
_0-0_0
  6
CONTINUOUS
 62
    7
 10
43097.36037378844
 20
-14986.000000000002
 11
45009.332886105527
 21
-14986.000000000002
  0
LINE
  8
_0-0_0
  6
CONTINUOUS
 62
    7
 10
12400.32643953377
 20
-14986.000000000002
 11
21293.509049912998
 21
-14986.000000000002
  0
LINE
  8
_0-0_0
  6
CONTINUOUS
 62
    7
 10
43018.407654337083
 20
-14732
 11
44948.767579742111
 21
-14732
  0
LINE
  8
_0-0_0
  6
CONTINUOUS
 62
    7
 10
12449.29339990185
 20
-14732
 11
21214.556330461659
 21
-14732
  0
LINE
  8
_0-0_0
  6
CONTINUOUS
 62
    7
 10
42939.454934885733
 20
-14478
 11
45003.833502022077
 21
-14478
  0
LINE
  8
_0-0_0
  6
CONTINUOUS
 62
    7
 10
12288.785506377541
 20
-14478
 11
21135.60361101032
 21
-14478
  0
LINE
  8
_0-0_0
  6
CONTINUOUS
 62
    7
 10
42860.502215434382
 20
-14224
 11
44988.174008231726
 21
-14224
  0
LINE
  8
_0-0_0
  6
CONTINUOUS
 62
    7
 10
12279.532969852
 20
-14224
 11
21056.650891558969
 21
-14224
  0
LINE
  8
_0-0_0
  6
CONTINUOUS
 62
    7
 10
42781.549495983018
 20
-13969.999999999998
 11
44972.514514441376
 21
-13969.999999999998
  0
LINE
  8
_0-0_0
  6
CONTINUOUS
 62
    7
 10
12270.280433326459
 20
-13969.999999999998
 11
20977.69817210763
 21
-13969.999999999998
  0
LINE
  8
_0-0_0
  6
CONTINUOUS
 62
    7
 10
42702.596776531667
 20
-13716
 11
44956.855020651034
 21
-13716
  0
LINE
  8
_0-0_0
  6
CONTINUOUS
 62
    7
 10
12261.02789680093
 20
-13716
 11
20255.124050370181
 21
-13716
  0
LINE
  8
_0-0_0
  6
CONTINUOUS
 62
    7
 10
42623.644057080317
 20
-13462
 11
44941.195526860683
 21
-13462
  0
LINE
  8
_0-0_0
  6
CONTINUOUS
 62
    7
 10
12251.775360275389
 20
-13462
 11
16735.484336014171
 21
-13462
  0
LINE
  8
_0-0_0
  6
CONTINUOUS
 62
    7
 10
12287.70176882779
 20
-13208.000000000002
 11
14000.84375971902
 21
-13208.000000000002
  0
ENDBLK
  0
BLOCK
  2
-214-_X259
 70
   64
 10
0
 20
0
 30
0
  0
LINE
  8
_0-0_0
  6
CONTINUOUS
 62
    7
 10
40386
 20
-16686.121933663901
 11
40386
 21
-16281.641739840497
  0
LINE
  8
_0-0_0
  6
CONTINUOUS
 62
    7
 10
40132
 20
-16793.44937433708
 11
40132
 21
-16302.976814478978
  0
LINE
  8
_0-0_0
  6
CONTINUOUS
 62
    7
 10
39878
 20
-16793.44937433708
 11
39878
 21
-16323.85642690145
  0
LINE
  8
_0-0_0
  6
CONTINUOUS
 62
    7
 10
39624
 20
-16793.44937433708
 11
39624
 21
-16344.280777078442
  0
LINE
  8
_0-0_0
  6
CONTINUOUS
 62
    7
 10
39370
 20
-16793.44937433708
 11
39370
 21
-16364.250060507209
  0
LINE
  8
_0-0_0
  6
CONTINUOUS
 62
    7
 10
39116
 20
-16793.44937433708
 11
39116
 21
-16383.76446822079
  0
LINE
  8
_0-0_0
  6
CONTINUOUS
 62
    7
 10
38862
 20
-16793.44937433708
 11
38862
 21
-16402.824186797661
  0
LINE
  8
_0-0_0
  6
CONTINUOUS
 62
    7
 10
38608
 20
-16793.44937433708
 11
38608
 21
-16421.429398370328
  0
LINE
  8
_0-0_0
  6
CONTINUOUS
 62
    7
 10
38354
 20
-16793.449374337091
 11
38354
 21
-16439.580280634342
  0
LINE
  8
_0-0_0
  6
CONTINUOUS
 62
    7
 10
38100
 20
-16793.449374337091
 11
38100
 21
-16457.277006856752
  0
LINE
  8
_0-0_0
  6
CONTINUOUS
 62
    7
 10
37846
 20
-16793.449374337091
 11
37846
 21
-16474.51974588447
  0
LINE
  8
_0-0_0
  6
CONTINUOUS
 62
    7
 10
37592
 20
-16793.449374337091
 11
37592
 21
-16491.308662152329
  0
LINE
  8
_0-0_0
  6
CONTINUOUS
 62
    7
 10
37338
 20
-16793.449374337091
 11
37338
 21
-16507.643915691038
  0
LINE
  8
_0-0_0
  6
CONTINUOUS
 62
    7
 10
37084
 20
-16793.449374337091
 11
37084
 21
-16523.52566213478
  0
LINE
  8
_0-0_0
  6
CONTINUOUS
 62
    7
 10
36830
 20
-16793.449374337091
 11
36830
 21
-16538.954052728721
  0
LINE
  8
_0-0_0
  6
CONTINUOUS
 62
    7
 10
36576
 20
-16793.449374337091
 11
36576
 21
-16553.929234336189
  0
LINE
  8
_0-0_0
  6
CONTINUOUS
 62
    7
 10
36322
 20
-16793.449374337091
 11
36322
 21
-16568.45134944583
  0
LINE
  8
_0-0_0
  6
CONTINUOUS
 62
    7
 10
36068
 20
-16793.449374337091
 11
36068
 21
-16582.520536178261
  0
LINE
  8
_0-0_0
  6
CONTINUOUS
 62
    7
 10
35814
 20
-16793.449374337091
 11
35814
 21
-16596.13692829269
  0
LINE
  8
_0-0_0
  6
CONTINUOUS
 62
    7
 10
35560
 20
-16793.449374337091
 11
35560
 21
-16609.300655193449
  0
LINE
  8
_0-0_0
  6
CONTINUOUS
 62
    7
 10
35306
 20
-16793.449374337091
 11
35306
 21
-16622.011841936011
  0
LINE
  8
_0-0_0
  6
CONTINUOUS
 62
    7
 10
35052
 20
-16793.449374337091
 11
35052
 21
-16634.270609233012
  0
LINE
  8
_0-0_0
  6
CONTINUOUS
 62
    7
 10
34798
 20
-16793.449374337091
 11
34798
 21
-16646.077073459921
  0
LINE
  8
_0-0_0
  6
CONTINUOUS
 62
    7
 10
34544
 20
-16793.449374337099
 11
34544
 21
-16657.4313466608
  0
LINE
  8
_0-0_0
  6
CONTINUOUS
 62
    7
 10
34290
 20
-16793.449374337099
 11
34290
 21
-16668.333536553371
  0
LINE
  8
_0-0_0
  6
CONTINUOUS
 62
    7
 10
34036
 20
-16793.449374337099
 11
34036
 21
-16678.78374653426
  0
LINE
  8
_0-0_0
  6
CONTINUOUS
 62
    7
 10
33782
 20
-16793.449374337099
 11
33782
 21
-16688.782075684001
  0
LINE
  8
_0-0_0
  6
CONTINUOUS
 62
    7
 10
33528
 20
-16793.449374337099
 11
33528
 21
-16698.32861877152
  0
LINE
  8
_0-0_0
  6
CONTINUOUS
 62
    7
 10
33274
 20
-16793.449374337099
 11
33274
 21
-16707.423466258861
  0
LINE
  8
_0-0_0
  6
CONTINUOUS
 62
    7
 10
33020
 20
-16793.449374337099
 11
33020
 21
-16716.066704305391
  0
LINE
  8
_0-0_0
  6
CONTINUOUS
 62
    7
 10
32766.000000000004
 20
-16793.449374337099
 11
32766.000000000004
 21
-16724.258414771819
  0
LINE
  8
_0-0_0
  6
CONTINUOUS
 62
    7
 10
32512
 20
-16793.449374337099
 11
32512
 21
-16731.998675224171
  0
LINE
  8
_0-0_0
  6
CONTINUOUS
 62
    7
 10
32258
 20
-16793.449374337099
 11
32258
 21
-16739.287558937482
  0
LINE
  8
_0-0_0
  6
CONTINUOUS
 62
    7
 10
32004.000000000004
 20
-16793.449374337099
 11
32004.000000000004
 21
-16746.125134899168
  0
LINE
  8
_0-0_0
  6
CONTINUOUS
 62
    7
 10
31750
 20
-16793.449374337099
 11
31750
 21
-16752.51146781235
  0
LINE
  8
_0-0_0
  6
CONTINUOUS
 62
    7
 10
31495.999999999996
 20
-16793.449374337099
 11
31495.999999999996
 21
-16758.446618098998
  0
LINE
  8
_0-0_0
  6
CONTINUOUS
 62
    7
 10
31242
 20
-16793.449374337099
 11
31242
 21
-16763.930641902611
  0
LINE
  8
_0-0_0
  6
CONTINUOUS
 62
    7
 10
30988
 20
-16793.449374337099
 11
30988
 21
-16768.963591091051
  0
LINE
  8
_0-0_0
  6
CONTINUOUS
 62
    7
 10
30733.999999999996
 20
-16793.449374337109
 11
30733.999999999996
 21
-16773.545513258869
  0
LINE
  8
_0-0_0
  6
CONTINUOUS
 62
    7
 10
30480
 20
-16793.449374337109
 11
30480
 21
-16777.676451729669
  0
LINE
  8
_0-0_0
  6
CONTINUOUS
 62
    7
 10
30226
 20
-16793.449374337109
 11
30226
 21
-16781.356445558082
  0
LINE
  8
_0-0_0
  6
CONTINUOUS
 62
    7
 10
29972.000000000004
 20
-16793.449374337109
 11
29972.000000000004
 21
-16784.585529531621
  0
LINE
  8
_0-0_0
  6
CONTINUOUS
 62
    7
 10
29718
 20
-16793.449374337109
 11
29718
 21
-16787.363734172341
  0
LINE
  8
_0-0_0
  6
CONTINUOUS
 62
    7
 10
29464
 20
-16793.449374337109
 11
29464
 21
-16789.691085738221
  0
LINE
  8
_0-0_0
  6
CONTINUOUS
 62
    7
 10
29210.000000000004
 20
-16793.449374337109
 11
29210.000000000004
 21
-16791.567606224558
  0
LINE
  8
_0-0_0
  6
CONTINUOUS
 62
    7
 10
28956
 20
-16793.449374337109
 11
28956
 21
-16792.993313364888
  0
LINE
  8
_0-0_0
  6
CONTINUOUS
 62
    7
 10
16256
 20
-16703.520691562069
 11
16256
 21
-16288.63305863785
  0
LINE
  8
_0-0_0
  6
CONTINUOUS
 62
    7
 10
16002.000000000002
 20
-16793.449374337149
 11
16002.000000000002
 21
-16266.99059020361
  0
LINE
  8
_0-0_0
  6
CONTINUOUS
 62
    7
 10
15747.999999999998
 20
-16793.449374337149
 11
15747.999999999998
 21
-16244.892314627068
  0
LINE
  8
_0-0_0
  6
CONTINUOUS
 62
    7
 10
15494
 20
-16793.449374337149
 11
15494
 21
-16222.33801992462
  0
LINE
  8
_0-0_0
  6
CONTINUOUS
 62
    7
 10
15240
 20
-16793.449374337149
 11
15240
 21
-16199.327489602672
  0
LINE
  8
_0-0_0
  6
CONTINUOUS
 62
    7
 10
14986.000000000002
 20
-16793.449374337149
 11
14986.000000000002
 21
-16175.860502647029
  0
LINE
  8
_0-0_0
  6
CONTINUOUS
 62
    7
 10
14732
 20
-16793.449374337149
 11
14732
 21
-16151.936833512209
  0
LINE
  8
_0-0_0
  6
CONTINUOUS
 62
    7
 10
14478
 20
-16793.449374337149
 11
14478
 21
-16127.55625211054
  0
LINE
  8
_0-0_0
  6
CONTINUOUS
 62
    7
 10
14224
 20
-16793.449374337149
 11
14224
 21
-16102.718523800868
  0
LINE
  8
_0-0_0
  6
CONTINUOUS
 62
    7
 10
13969.999999999998
 20
-16793.449374337149
 11
13969.999999999998
 21
-16077.42340937719
  0
LINE
  8
_0-0_0
  6
CONTINUOUS
 62
    7
 10
13716
 20
-16793.449374337149
 11
13716
 21
-16051.670665056939
  0
LINE
  8
_0-0_0
  6
CONTINUOUS
 62
    7
 10
13462
 20
-16793.449374337149
 11
13462
 21
-16025.460042469171
  0
LINE
  8
_0-0_0
  6
CONTINUOUS
 62
    7
 10
13208.000000000002
 20
-16793.44937433716
 11
13208.000000000002
 21
-15998.791288642329
  0
LINE
  8
_0-0_0
  6
CONTINUOUS
 62
    7
 10
12954
 20
-16793.44937433716
 11
12954
 21
-15971.664145991928
  0
LINE
  8
_0-0_0
  6
CONTINUOUS
 62
    7
 10
12700
 20
-16793.44937433716
 11
12700
 21
-15944.078352307901
  0
LINE
  8
_0-0_0
  6
CONTINUOUS
 62
    7
 10
12446
 20
-16239.827458708438
 11
12446
 21
-15860.46596534932
  0
LINE
  8
_0-0_0
  6
CONTINUOUS
 62
    7
 10
31238.647902026405
 20
-16764
 11
40356.30553376169
 21
-16764
  0
LINE
  8
_0-0_0
  6
CONTINUOUS
 62
    7
 10
12525.692031444971
 20
-16764
 11
16232.939581745961
 21
-16764
  0
LINE
  8
_0-0_0
  6
CONTINUOUS
 62
    7
 10
37300.772226653542
 20
-16510
 11
40453.154297211717
 21
-16510
  0
LINE
  8
_0-0_0
  6
CONTINUOUS
 62
    7
 10
12455.84165868699
 20
-16510
 11
16329.788345195982
 21
-16510
  0
LINE
  8
_0-0_0
  6
CONTINUOUS
 62
    7
 10
12446.58912216146
 20
-16256
 11
15875.017914147218
 21
-16256
  0
LINE
  8
_0-0_0
  6
CONTINUOUS
 62
    7
 10
12437.33658563592
 20
-16002.000000000002
 11
13238.33109077657
 21
-16002.000000000002
  0
ENDBLK
  0
BLOCK
  2
-215-_U260
 70
   64
 10
0
 20
0
 30
0
  0
LINE
  8
_0-f_寸法引出
  6
CONTINUOUS
 62
  150
 10
12582.571945848609
 20
-22539.947302170582
 11
13423.13497895677
 21
-21133.653889411649
  0
LINE
  8
_0-f_寸法引出
  6
CONTINUOUS
 62
  150
 10
13423.13497895677
 20
-21133.653889411649
 11
14833.13497895677
 21
-21133.653889411649
  0
ENDBLK
  0
BLOCK
  2
-216-_U261
 70
   64
 10
0
 20
0
 30
0
  0
TEXT
  8
_1-0_寸法字
 62
    7
 10
13543.134978956768
 20
-21113.653889411649
 40
300
 41
0.75
 50
0
  1
アイナット
  0
ENDBLK
  0
BLOCK
  2
-217-_U262
 70
   64
 10
0
 20
0
 30
0
  0
LINE
  8
_0-f_寸法引出
  6
CONTINUOUS
 62
  150
 10
12574.43550494856
 20
-22765.731761181421
 11
13423.13497895677
 21
-21632.476051890178
  0
LINE
  8
_0-f_寸法引出
  6
CONTINUOUS
 62
  150
 10
13423.13497895677
 20
-21632.476051890178
 11
14588.84926467106
 21
-21632.476051890178
  0
ENDBLK
  0
BLOCK
  2
-218-_U263
 70
   64
 10
0
 20
0
 30
0
  0
TEXT
  8
_1-0_寸法字
 62
    7
 10
13543.134978956768
 20
-21612.476051890171
 40
300
 41
0.75
 50
0
  1
アンカ-
  0
ENDBLK
  0
BLOCK
  2
-219-_U264
 70
   64
 10
0
 20
0
 30
0
  0
TEXT
  8
_1-0_寸法字
 62
    7
 10
13581.341172535333
 20
-22004.64167756704
 40
270
 41
0.7500000000000001
 50
0
  1
ＳＳ400　
  0
ENDBLK
  0
BLOCK
  2
-220-_U265
 70
   64
 10
0
 20
0
 30
0
  0
TEXT
  8
_1-0_寸法字
 62
    7
 10
13538.04348086465
 20
-22329.239663361539
 40
270
 41
0.7500000000000001
 50
0
  1
（亜鉛メッキ）
  0
ENDBLK
  0
BLOCK
  2
-221-_U266
 70
   64
 10
0
 20
0
 30
0
  0
LINE
  8
_0-f_寸法引出
  6
CONTINUOUS
 62
  150
 10
12505.73342597111
 20
-18842.728943216222
 11
13248.669286803181
 21
-17824.35901665191
  0
LINE
  8
_0-f_寸法引出
  6
CONTINUOUS
 62
  150
 10
13248.669286803181
 20
-17824.35901665191
 11
15198.669286803181
 21
-17824.35901665191
  0
ENDBLK
  0
BLOCK
  2
-222-_U267
 70
   64
 10
0
 20
0
 30
0
  0
TEXT
  8
_1-0_寸法字
 62
    7
 10
13368.669286803181
 20
-17779.44920727034
 40
300
 41
0.75
 50
0
  1
ガイドワイヤー
  0
ENDBLK
  0
BLOCK
  2
-223-_U268
 70
   64
 10
0
 20
0
 30
0
  0
TEXT
  8
_1-0_寸法字
 62
    7
 10
32877.922667470411
 20
-12715.33341899165
 40
270
 41
0.7500000000000001
 50
0
  1
周囲ワイヤー
  0
ENDBLK
  0
BLOCK
  2
-224-_U269
 70
   64
 10
0
 20
0
 30
0
  0
LINE
  8
_0-f_寸法引出
  6
CONTINUOUS
 62
  150
 10
32132.311605062263
 20
-13971.522258493558
 11
32757.922667470411
 21
-12765.74587067519
  0
LINE
  8
_0-f_寸法引出
  6
CONTINUOUS
 62
  150
 10
32757.922667470411
 20
-12765.74587067519
 11
34281.922667470411
 21
-12765.74587067519
  0
ENDBLK
  0
ENDSEC
  0
SECTION
  2
ENTITIES
  0
TEXT
  8
_0-d_寸法
 62
    7
 10
7222.5960297242636
 20
1179.3133207887904
 40
300
 41
0.75
 50
0
  1
▽GL
  0
LINE
  8
_1-5_画層2
  6
CONTINUOUS
 62
   30
 10
48201.855594447079
 20
1123.4478720336313
 11
6081.7666638235978
 21
1123.4478720336313
  0
LINE
  8
_1-4_通り芯
  6
DASHDOT
 62
    7
 10
13387.53995597115
 20
-4378.4901664793697
 11
13387.53995597115
 21
11012.135987797461
  0
LINE
  8
_1-4_通り芯
  6
DASHDOT
 62
    7
 10
46887.53995597121
 20
-4337.0734935648497
 11
46887.539955971151
 21
11100.850434148451
  0
LINE
  8
_0-5_画層2-1
  6
CONTINUOUS
 62
    7
 10
13120.13995597107
 20
823.44787203365968
 11
13654.939955971171
 21
823.44787203369094
  0
LINE
  8
_0-5_画層2-1
  6
CONTINUOUS
 62
    7
 10
13120.13995597107
 20
1323.4478720336911
 11
13654.939955971171
 21
1323.4478720336911
  0
INSERT
  2
-166-_X192
  8
_0-4_______
 10
1418.4251463684177
 20
23716.897246370791
 41
1
 42
1
 50
0
  0
LINE
  8
_1-3_画層1
  6
CONTINUOUS
 62
    7
 10
13083.081830144598
 20
10723.44787203363
 11
13120.13995597113
 21
-3876.5521279662494
  0
LINE
  8
_1-3_画層1
  6
CONTINUOUS
 62
    7
 10
13654.939955971229
 20
-3876.5521279662494
 11
13654.939955971171
 21
10713.032552739991
  0
INSERT
  2
-167-_U193
  8
_0-4_______
 10
1418.4251463684177
 20
23716.897246370791
 41
1
 42
1
 50
0
  0
INSERT
  2
-168-_U194
  8
_0-4_______
 10
1418.4251463684177
 20
23716.897246370791
 41
1
 42
1
 50
0
  0
LINE
  8
_0-5_画層2-1
  6
CONTINUOUS
 62
    7
 10
46620.139955971012
 20
823.44787203375063
 11
47154.939955971167
 21
823.44787203377905
  0
LINE
  8
_0-5_画層2-1
  6
CONTINUOUS
 62
    7
 10
46620.139955971012
 20
1323.447872033779
 11
47154.939955971167
 21
1323.447872033779
  0
INSERT
  2
-169-_X195
  8
_0-4_______
 10
1418.4251463684177
 20
23716.897246370791
 41
1
 42
1
 50
0
  0
LINE
  8
_1-3_画層1
  6
CONTINUOUS
 62
    7
 10
46620.139955971128
 20
10721.341947915531
 11
46620.139955971128
 21
-3876.5521279662494
  0
LINE
  8
_1-3_画層1
  6
CONTINUOUS
 62
    7
 10
47154.939955971167
 20
-3876.5521279662494
 11
47154.93995596785
 21
10723.447872033661
  0
LINE
  8
_1-3_画層1
  6
CONTINUOUS
 62
    7
 10
46620.139955971128
 20
10723.44787203375
 11
47154.939955971167
 21
10723.447872033721
  0
LINE
  8
_1-3_画層1
  6
CONTINUOUS
 62
    7
 10
46620.139955971128
 20
10721.341947915531
 11
47154.939955971167
 21
10721.341947915531
  0
INSERT
  2
-055-_D54
  8
_0-d_寸法
 10
1418.4251463684177
 20
23716.897246370791
 41
1
 42
1
 50
0
  0
ARC
  8
_0-3_画層1-2
  6
CONTINUOUS
 62
    3
 10
30889.690855203917
 20
162220.14155229388
 40
152497.9855740238
 50
263.59832571199956
 51
275.81642394759513
  0
INSERT
  2
-041-_D45
  8
_0-d_寸法
 10
1418.4251463684177
 20
23716.897246370791
 41
1
 42
1
 50
0
  0
LINE
  8
_0-0_0
  6
CONTINUOUS
 62
    5
 10
28091.72644899154
 20
-7916.6766172453099
 11
32183.353462950941
 21
-7916.6766172453099
  0
TEXT
  8
_0-0_0
 62
    7
 10
28454.228272624521
 20
-7853.8301673923797
 40
500
 41
0.75
 50
0
  1
立面図
  0
TEXT
  8
_0-0_0
 62
    7
 10
30425.851165289321
 20
-7798.7321991839908
 40
299.99997000000002
 41
0.75
 50
0
  1
S=1:50
  0
INSERT
  2
-170-_U196
  8
_0-4_______
 10
1418.4251463684177
 20
23716.897246370791
 41
1
 42
1
 50
0
  0
INSERT
  2
-171-_U197
  8
_0-4_______
 10
1418.4251463684177
 20
23716.897246370791
 41
1
 42
1
 50
0
  0
INSERT
  2
-172-_U198
  8
_0-4_______
 10
1418.4251463684177
 20
23716.897246370791
 41
1
 42
1
 50
0
  0
INSERT
  2
-173-_U199
  8
_0-4_______
 10
1418.4251463684177
 20
23716.897246370791
 41
1
 42
1
 50
0
  0
INSERT
  2
-174-_U200
  8
_0-4_______
 10
1418.4251463684177
 20
23716.897246370791
 41
1
 42
1
 50
0
  0
INSERT
  2
-043-_D46
  8
_0-d_寸法
 10
1418.4251463684177
 20
23716.897246370791
 41
1
 42
1
 50
0
  0
INSERT
  2
-045-_D48
  8
_0-d_寸法
 10
1418.4251463684177
 20
23716.897246370791
 41
1
 42
1
 50
0
  0
INSERT
  2
-175-_U201
  8
_0-4_______
 10
1418.4251463684177
 20
23716.897246370791
 41
1
 42
1
 50
0
  0
INSERT
  2
-176-_U202
  8
_0-4_______
 10
1418.4251463684177
 20
23716.897246370791
 41
1
 42
1
 50
0
  0
LINE
  8
_0-3_画層1-2
  6
CONTINUOUS
 62
    3
 10
13654.96896256981
 20
10673.032552739871
 11
14001.51199593299
 21
1159.75689786367
  0
LINE
  8
_1-3_画層1
  6
CONTINUOUS
 62
    7
 10
47154.93995596785
 20
10723.447872033661
 11
46620.13995596781
 21
10723.44787203363
  0
LINE
  8
_1-3_画層1
  6
CONTINUOUS
 62
    7
 10
47154.93995596785
 20
10683.44787203363
 11
46620.13995596781
 21
10683.44787203363
  0
CIRCLE
  8
_0-3_画層1-2
  6
CONTINUOUS
 62
    3
 10
46450.151081798918
 20
10518.42302853969
 40
80
  0
LINE
  8
_0-3_画層1-2
  6
CONTINUOUS
 62
    3
 10
46530.151081798918
 20
10518.42302853969
 11
46212.163814379921
 21
2503.19252023219
  0
LINE
  8
_0-3_画層1-2
  6
CONTINUOUS
 62
    3
 10
46620.13995596781
 20
10683.44787203363
 11
46310.889472900271
 21
1159.75689786367
  0
LINE
  8
_0-3_画層1-2
  6
CONTINUOUS
 62
    3
 10
46620.13995596781
 20
10683.44787203363
 11
46530.151081798918
 21
10518.42302853969
  0
LINE
  8
_0-3_画層1-2
  6
CONTINUOUS
 62
    3
 10
46309.255692194711
 20
1123.4478720336597
 11
46309.255692194769
 21
699.05271849054031
  0
LINE
  8
_0-3_画層1-2
  6
CONTINUOUS
 62
    3
 10
46309.255692194769
 20
699.05271849054031
 11
46385.875729988125
 21
699.05271849054031
  0
CIRCLE
  8
_0-3_画層1-2
  6
CONTINUOUS
 62
    3
 10
46310.889472900271
 20
1159.75689786367
 40
32.261429107977087
  0
LINE
  8
_0-4_______
  6
CONTINUOUS
 62
    7
 10
13497.155198241899
 20
-4076.552127966278
 11
13612.625252079999
 21
-3876.552127966278
  0
LINE
  8
_0-4_______
  6
CONTINUOUS
 62
    7
 10
13522.83176596122
 20
-4032.0790081127484
 11
13548.508333680071
 21
-4076.552127966278
  0
LINE
  8
_0-4_______
  6
CONTINUOUS
 62
    7
 10
13555.188774277769
 20
-3876.552127966278
 11
13587.403040892297
 21
-3920.2382792228318
  0
LINE
  8
_0-4_______
  6
CONTINUOUS
 62
    7
 10
13670.36027899882
 20
-4076.552127966278
 11
13785.830332836449
 21
-3876.552127966278
  0
LINE
  8
_0-4_______
  6
CONTINUOUS
 62
    7
 10
13696.036846717669
 20
-4032.0790081127484
 11
13721.71341443699
 21
-4076.552127966278
  0
LINE
  8
_0-4_______
  6
CONTINUOUS
 62
    7
 10
13728.39385503469
 20
-3876.552127966278
 11
13760.608121648749
 21
-3920.2382792228318
  0
LINE
  8
_0-4_______
  6
CONTINUOUS
 62
    7
 10
13323.950117484988
 20
-4076.552127966278
 11
13439.42017132309
 21
-3876.552127966278
  0
LINE
  8
_0-4_______
  6
CONTINUOUS
 62
    7
 10
13349.626685204299
 20
-4032.0790081127484
 11
13375.303252923157
 21
-4076.552127966278
  0
LINE
  8
_0-4_______
  6
CONTINUOUS
 62
    7
 10
13381.98369352086
 20
-3876.552127966278
 11
13414.19796013491
 21
-3920.2382792228318
  0
LINE
  8
_0-4_______
  6
CONTINUOUS
 62
    7
 10
13150.745036728069
 20
-4076.552127966278
 11
13266.215090566169
 21
-3876.552127966278
  0
LINE
  8
_0-4_______
  6
CONTINUOUS
 62
    7
 10
13176.421604447378
 20
-4032.0790081127484
 11
13202.098172166239
 21
-4076.552127966278
  0
LINE
  8
_0-4_______
  6
CONTINUOUS
 62
    7
 10
13208.778612763941
 20
-3876.552127966278
 11
13240.992879378462
 21
-3920.2382792228318
  0
LINE
  8
_0-4_______
  6
CONTINUOUS
 62
    7
 10
12977.53995597115
 20
-4076.552127966278
 11
13093.010009809252
 21
-3876.552127966278
  0
LINE
  8
_0-4_______
  6
CONTINUOUS
 62
    7
 10
13003.216523690469
 20
-4032.0790081127484
 11
13028.893091409322
 21
-4076.552127966278
  0
LINE
  8
_0-4_______
  6
CONTINUOUS
 62
    7
 10
13035.573532007022
 20
-3876.552127966278
 11
13067.787798621081
 21
-3920.2382792228318
  0
LINE
  8
_1-5_画層2
  6
CONTINUOUS
 62
   30
 10
13837.53995597115
 20
-3876.552127966278
 11
12937.539955971153
 21
-3876.552127966278
  0
LINE
  8
_1-5_画層2
  6
CONTINUOUS
 62
   30
 10
12687.539955971153
 20
1123.4478720338302
 11
12687.539955971153
 21
523.44787203377905
  0
LINE
  8
_1-5_画層2
  6
CONTINUOUS
 62
   30
 10
12687.539955971153
 20
523.44787203377905
 11
12937.539955971153
 21
523.44787203377905
  0
LINE
  8
_1-5_画層2
  6
CONTINUOUS
 62
   30
 10
12937.539955971153
 20
523.44787203377905
 11
12937.539955971153
 21
-4076.552127966278
  0
LINE
  8
_1-5_画層2
  6
CONTINUOUS
 62
   30
 10
12937.539955971153
 20
-4076.552127966278
 11
13837.53995597115
 21
-4076.552127966278
  0
LINE
  8
_1-5_画層2
  6
CONTINUOUS
 62
   30
 10
13837.53995597115
 20
-4076.552127966278
 11
13837.53995597115
 21
523.44787203377905
  0
LINE
  8
_1-5_画層2
  6
CONTINUOUS
 62
   30
 10
13837.53995597115
 20
523.44787203377905
 11
14087.53995597115
 21
523.44787203377905
  0
LINE
  8
_1-5_画層2
  6
CONTINUOUS
 62
   30
 10
14087.53995597115
 20
523.44787203377905
 11
14087.53995597115
 21
1123.4478720338302
  0
LINE
  8
_0-4_______
  6
CONTINUOUS
 62
    7
 10
46997.155198241911
 20
-4076.552127966278
 11
47112.625252080012
 21
-3876.552127966278
  0
LINE
  8
_0-4_______
  6
CONTINUOUS
 62
    7
 10
47022.831765961222
 20
-4032.0790081127484
 11
47048.508333680067
 21
-4076.552127966278
  0
LINE
  8
_0-4_______
  6
CONTINUOUS
 62
    7
 10
47055.188774277776
 20
-3876.552127966278
 11
47087.403040892292
 21
-3920.2382792228318
  0
LINE
  8
_0-4_______
  6
CONTINUOUS
 62
    7
 10
47170.360278998822
 20
-4076.552127966278
 11
47285.830332836449
 21
-3876.552127966278
  0
LINE
  8
_0-4_______
  6
CONTINUOUS
 62
    7
 10
47196.036846717667
 20
-4032.0790081127484
 11
47221.713414436985
 21
-4076.552127966278
  0
LINE
  8
_0-4_______
  6
CONTINUOUS
 62
    7
 10
47228.393855034687
 20
-3876.552127966278
 11
47260.608121648751
 21
-3920.2382792228318
  0
LINE
  8
_0-4_______
  6
CONTINUOUS
 62
    7
 10
46823.950117484979
 20
-4076.552127966278
 11
46939.42017132308
 21
-3876.552127966278
  0
LINE
  8
_0-4_______
  6
CONTINUOUS
 62
    7
 10
46849.62668520429
 20
-4032.0790081127484
 11
46875.303252923157
 21
-4076.552127966278
  0
LINE
  8
_0-4_______
  6
CONTINUOUS
 62
    7
 10
46881.983693520866
 20
-3876.552127966278
 11
46914.197960134923
 21
-3920.2382792228318
  0
LINE
  8
_0-4_______
  6
CONTINUOUS
 62
    7
 10
46650.745036728069
 20
-4076.552127966278
 11
46766.215090566169
 21
-3876.552127966278
  0
LINE
  8
_0-4_______
  6
CONTINUOUS
 62
    7
 10
46676.421604447387
 20
-4032.0790081127484
 11
46702.098172166232
 21
-4076.552127966278
  0
LINE
  8
_0-4_______
  6
CONTINUOUS
 62
    7
 10
46708.778612763941
 20
-3876.552127966278
 11
46740.992879378457
 21
-3920.2382792228318
  0
LINE
  8
_0-4_______
  6
CONTINUOUS
 62
    7
 10
46477.539955971151
 20
-4076.552127966278
 11
46593.010009809252
 21
-3876.552127966278
  0
LINE
  8
_0-4_______
  6
CONTINUOUS
 62
    7
 10
46503.216523690469
 20
-4032.0790081127484
 11
46528.893091409322
 21
-4076.552127966278
  0
LINE
  8
_0-4_______
  6
CONTINUOUS
 62
    7
 10
46535.573532007016
 20
-3876.552127966278
 11
46567.787798621081
 21
-3920.2382792228318
  0
LINE
  8
_1-5_画層2
  6
CONTINUOUS
 62
   30
 10
47337.539955971151
 20
-3876.552127966278
 11
46437.539955971151
 21
-3876.552127966278
  0
LINE
  8
_1-5_画層2
  6
CONTINUOUS
 62
   30
 10
46187.539955971151
 20
1123.4478720338302
 11
46187.539955971151
 21
523.44787203377905
  0
LINE
  8
_1-5_画層2
  6
CONTINUOUS
 62
   30
 10
46187.539955971151
 20
523.44787203377905
 11
46437.539955971151
 21
523.44787203377905
  0
LINE
  8
_1-5_画層2
  6
CONTINUOUS
 62
   30
 10
46437.539955971151
 20
523.44787203377905
 11
46437.539955971151
 21
-4076.552127966278
  0
LINE
  8
_1-5_画層2
  6
CONTINUOUS
 62
   30
 10
46437.539955971151
 20
-4076.552127966278
 11
47337.539955971151
 21
-4076.552127966278
  0
LINE
  8
_1-5_画層2
  6
CONTINUOUS
 62
   30
 10
47337.539955971151
 20
-4076.552127966278
 11
47337.539955971151
 21
523.44787203377905
  0
LINE
  8
_1-5_画層2
  6
CONTINUOUS
 62
   30
 10
47337.539955971151
 20
523.44787203377905
 11
47587.539955971151
 21
523.44787203377905
  0
LINE
  8
_1-5_画層2
  6
CONTINUOUS
 62
   30
 10
47587.539955971151
 20
523.44787203377905
 11
47587.539955971151
 21
1123.4478720338302
  0
LINE
  8
_0-3_画層1-2
  6
CONTINUOUS
 62
    3
 10
14003.145776638559
 20
1123.4478720336597
 11
14003.145776638499
 21
699.05271849054031
  0
LINE
  8
_0-3_画層1-2
  6
CONTINUOUS
 62
    3
 10
14003.145776638499
 20
699.05271849054031
 11
13926.525738845141
 21
699.05271849054031
  0
CIRCLE
  8
_0-3_画層1-2
  6
CONTINUOUS
 62
    3
 10
14001.51199593299
 20
1159.75689786367
 40
32.261429107977087
  0
INSERT
  2
-177-_U203
  8
_0-4_______
 10
1418.4251463684177
 20
23716.897246370791
 41
1
 42
1
 50
0
  0
INSERT
  2
-178-_U204
  8
_0-4_______
 10
1418.4251463684177
 20
23716.897246370791
 41
1
 42
1
 50
0
  0
INSERT
  2
-047-_D49
  8
_0-d_寸法
 10
1418.4251463684177
 20
23716.897246370791
 41
1
 42
1
 50
0
  0
LINE
  8
_0-3_画層1-2
  6
CONTINUOUS
 62
    3
 10
13884.59210304437
 20
6923.4478720336401
 11
46378.578617614388
 21
6923.447872033722
  0
INSERT
  2
-049-_D50
  8
_0-d_寸法
 10
1418.4251463684177
 20
23716.897246370791
 41
1
 42
1
 50
0
  0
INSERT
  2
-051-_D52
  8
_0-d_寸法
 10
1418.4251463684177
 20
23716.897246370791
 41
1
 42
1
 50
0
  0
ARC
  8
_0-3_画層1-2
  6
CONTINUOUS
 62
    3
 10
29698.10597244462
 20
150041.71594914957
 40
143119.4100180449
 50
263.64353081899941
 51
276.7037159611474
  0
INSERT
  2
-053-_D53
  8
_0-d_寸法
 10
1418.4251463684177
 20
23716.897246370791
 41
1
 42
1
 50
0
  0
LINE
  8
_1-3_画層1
  6
CONTINUOUS
 62
    7
 10
13083.53630785711
 20
10713.032552739991
 11
13654.96896257313
 21
10713.03255273996
  0
LINE
  8
_1-3_画層1
  6
CONTINUOUS
 62
    7
 10
13654.96896256981
 20
10673.032552739871
 11
13083.637836968899
 21
10673.032552739871
  0
CIRCLE
  8
_0-3_画層1-2
  6
CONTINUOUS
 62
    3
 10
13654.939955971171
 20
10793.032552739991
 40
80
  0
CIRCLE
  8
_0-3_画層1-2
  6
CONTINUOUS
 62
    3
 10
13083.53630785711
 20
10793.032552739991
 40
80
  0
LINE
  8
_0-3_画層1-2
  6
CONTINUOUS
 62
    3
 10
13654.939955971229
 20
10870.212388935561
 11
13104.37073351871
 21
10870.27196435965
  0
LINE
  8
_0-3_画層1-2
  6
CONTINUOUS
 62
    3
 10
13734.939955971169
 20
10793.032552739991
 11
13886.474747288941
 21
10673.032552739871
  0
LINE
  8
_0-3_画層1-2
  6
CONTINUOUS
 62
    3
 10
13003.53630785711
 20
10793.032552739991
 11
12720.764572243177
 21
2490.8403727186114
  0
LINE
  8
_1-2_図面枠
  6
CONTINUOUS
 62
    7
 10
1418.425146368412
 20
18284.412375020795
 11
57985.785923470823
 21
18284.412375020795
  0
LINE
  8
_1-2_図面枠
  6
CONTINUOUS
 62
    7
 10
57985.785923470823
 20
18284.412375020795
 11
57985.785923470823
 21
-21715.587624979213
  0
LINE
  8
_1-2_図面枠
  6
CONTINUOUS
 62
    7
 10
57985.785923470823
 20
-21715.587624979213
 11
1418.425146368412
 21
-21715.587624979213
  0
LINE
  8
_1-2_図面枠
  6
CONTINUOUS
 62
    7
 10
1418.425146368412
 20
-21715.587624979213
 11
1418.425146368412
 21
18284.412375020795
  0
TEXT
  8
_0-d_寸法
 62
    7
 10
25882.979892423871
 20
13390.62956005289
 40
500
 41
0.75
 50
0
  1
吊り式タレネット
  0
LINE
  8
_0-e_画層3
  6
CONTINUOUS
 62
    7
 10
24039.008376986731
 20
13141.11618081597
 11
32621.091457809878
 21
13141.11618081597
  0
LINE
  8
_0-e_画層3
  6
CONTINUOUS
 62
    7
 10
24039.008376986731
 20
13201.116180813642
 11
32621.091457809878
 21
13201.116180813642
  0
INSERT
  2
-179-_U205
  8
_0-4_______
 10
1418.4251463684177
 20
23716.897246370791
 41
1
 42
1
 50
0
  0
TEXT
  8
_0-e_画層3
 62
    7
 10
26424.835387621475
 20
12639.175085466011
 40
350
 41
0.75
 50
0
  1
【溶融亜鉛めっき仕上げ】
  0
LINE
  8
_1-4_通り芯
  6
DASHDOT
 62
    7
 10
34541.662843009741
 20
-16025.629782299417
 11
34541.662843009741
 21
-12683.500217110406
  0
LINE
  8
_1-3_画層1
  6
CONTINUOUS
 62
    7
 10
34234.162628646642
 20
-14137.27925359097
 11
34365.566065675739
 21
-13849.190608039113
  0
ARC
  8
_1-3_画層1
  6
CONTINUOUS
 62
    7
 10
34541.662843009741
 20
-13586.995244716576
 40
213.68904603130997
 50
329.50260865415902
 51
76.468209109932616
  0
ARC
  8
_1-3_画層1
  6
CONTINUOUS
 62
    7
 10
34541.662843009741
 20
-13586.995244716576
 40
213.68904603130997
 50
103.53179089006738
 51
210.49739134584101
  0
ARC
  8
_1-3_画層1
  6
CONTINUOUS
 62
    7
 10
34541.662843009741
 20
-13586.995244716576
 40
147.02237936464331
 50
109.8820089323425
 51
70.117991067657499
  0
LINE
  8
_1-3_画層1
  6
CONTINUOUS
 62
    7
 10
34849.163057372862
 20
-14137.27925359097
 11
34717.75962034383
 21
-13849.190608039113
  0
ARC
  8
_1-3_画層1
  6
CONTINUOUS
 62
    7
 10
34869.397205323621
 20
-13780.025439064872
 40
166.66666666666671
 50
149.50260865415899
 51
204.5187505841798
  0
ARC
  8
_1-3_画層1
  6
CONTINUOUS
 62
    7
 10
34213.928480695802
 20
-13780.025439064872
 40
166.66666666666671
 50
335.48124941582017
 51
30.497391345840953
  0
LINE
  8
_1-8_4JISSHI-4-0SHIN
  6
CONTINUOUS
 62
    6
 10
35041.66284300977
 20
-14137.27925359097
 11
35693.725580354483
 21
-14137.27925359097
  0
LINE
  8
_1-5_画層2
  6
CONTINUOUS
 62
   30
 10
33221.16810335678
 20
-14137.27925359097
 11
35794.016659047236
 21
-14137.27925359097
  0
INSERT
  2
-180-_U206
  8
_0-4_______
 10
1418.4251463684177
 20
23716.897246370791
 41
1
 42
1
 50
0
  0
INSERT
  2
-181-_U207
  8
_0-4_______
 10
1418.4251463684177
 20
23716.897246370791
 41
1
 42
1
 50
0
  0
LINE
  8
_1-3_画層1
  6
CONTINUOUS
 62
    7
 10
34491.662843009741
 20
-13456.685417051631
 11
34491.662843009741
 21
-13208.791422423599
  0
LINE
  8
_1-3_画層1
  6
CONTINUOUS
 62
    7
 10
34591.66284300969
 20
-13206.894227904508
 11
34591.66284300969
 21
-13456.685417051631
  0
LINE
  8
_1-3_画層1
  6
CONTINUOUS
 62
    7
 10
34658.329509676412
 20
-15837.279253591021
 11
35041.662843009726
 21
-15837.279253591021
  0
LINE
  8
_1-3_画層1
  6
CONTINUOUS
 62
    7
 10
35041.662843009726
 20
-15837.279253591021
 11
35041.662843009726
 21
-15937.27925359097
  0
LINE
  8
_1-3_画層1
  6
CONTINUOUS
 62
    7
 10
35041.662843009726
 20
-15937.27925359097
 11
34658.329509676412
 21
-15937.27925359097
  0
ARC
  8
_1-3_画層1
  6
CONTINUOUS
 62
    7
 10
34658.329509676405
 20
-15770.612586924306
 40
166.66666666666464
 50
180.00000000000256
 51
270.00000000000256
  0
LINE
  8
_1-3_画層1
  6
CONTINUOUS
 62
    7
 10
34491.662843009741
 20
-15770.612586924311
 11
34491.662843009741
 21
-14137.27925359097
  0
LINE
  8
_1-3_画層1
  6
CONTINUOUS
 62
    7
 10
34491.662843009741
 20
-14137.27925359097
 11
34591.662843009712
 21
-14137.27925359097
  0
LINE
  8
_1-3_画層1
  6
CONTINUOUS
 62
    7
 10
34591.662843009712
 20
-14137.27925359097
 11
34591.662843009741
 21
-15770.612586924346
  0
ARC
  8
_1-3_画層1
  6
CONTINUOUS
 62
    7
 10
34658.329509676412
 20
-15770.612586924346
 40
66.666666666674004
 50
179.9999999999998
 51
269.99999999999835
  0
ARC
  8
_1-3_画層1
  6
CONTINUOUS
 62
    7
 10
34541.662843009741
 20
-13456.685417051631
 40
50
 50
180
 51
0
  0
ARC
  8
_1-3_画層1
  6
CONTINUOUS
 62
    7
 10
34541.662843009741
 20
-13206.894227904508
 40
50
 50
0
 51
180
  0
INSERT
  2
-057-_D55
  8
_0-b_寸法20
 10
1418.4251463684177
 20
23716.897246370791
 41
1
 42
1
 50
0
  0
LINE
  8
_0-4_______
  6
CONTINUOUS
 62
    7
 10
33398.316649369248
 20
-14464.071236930227
 11
33725.108632708456
 21
-14137.27925359097
  0
LINE
  8
_0-4_______
  6
CONTINUOUS
 62
    7
 10
33324.659692995629
 20
-14464.071236930227
 11
33651.451676334858
 21
-14137.27925359097
  0
LINE
  8
_0-4_______
  6
CONTINUOUS
 62
    7
 10
33251.002736622002
 20
-14464.071236930227
 11
33577.794719961239
 21
-14137.27925359097
  0
TEXT
  8
_0-0_0
 62
    7
 10
33669.556923793381
 20
-18318.700954598462
 40
500
 41
0.75
 50
0
  1
B部詳細
  0
LINE
  8
_0-0_0
  6
CONTINUOUS
 62
    5
 10
33483.986538382931
 20
-18381.547404451259
 11
35529.800045362652
 21
-18381.547404451259
  0
INSERT
  2
-182-_U208
  8
_0-4_______
 10
1418.4251463684177
 20
23716.897246370791
 41
1
 42
1
 50
0
  0
INSERT
  2
-183-_U209
  8
_0-4_______
 10
1418.4251463684177
 20
23716.897246370791
 41
1
 42
1
 50
0
  0
INSERT
  2
-184-_U210
  8
_0-4_______
 10
1418.4251463684177
 20
23716.897246370791
 41
1
 42
1
 50
0
  0
ARC
  8
_0-5_画層2-1
  6
CONTINUOUS
 62
    7
 10
34542.391254809278
 20
-13144.068741008085
 40
182.2337962963889
 50
180.87823479193909
 51
253.83705801844951
  0
ARC
  8
_0-5_画層2-1
  6
CONTINUOUS
 62
    7
 10
34542.391254809278
 20
-13144.068741008085
 40
82.233796296388888
 50
306.81009735729191
 51
353.70557104501881
  0
ARC
  8
_0-5_画層2-1
  6
CONTINUOUS
 62
    7
 10
34540.934431439789
 20
-13144.068741008085
 40
182.2337962963889
 50
286.16294190602707
 51
359.12176520806088
  0
LINE
  8
_0-5_画層2-1
  6
CONTINUOUS
 62
    7
 10
34624.129314578699
 20
-13153.084662392854
 11
34468.19607272734
 21
-12712.639305823979
  0
ARC
  8
_0-5_画層2-1
  6
CONTINUOUS
 62
    7
 10
34542.391254809278
 20
-13144.068741008085
 40
82.233796296388888
 50
185.27938494751874
 51
232.05005998619274
  0
LINE
  8
_0-5_画層2-1
  6
CONTINUOUS
 62
    7
 10
34723.146820212321
 20
-13146.861927427284
 11
34560.788665322267
 21
-12686.821423645693
  0
LINE
  8
_0-5_画層2-1
  6
CONTINUOUS
 62
    7
 10
34468.19607272734
 20
-12712.639305824001
 11
34468.196072728242
 21
-12217.997031570651
  0
LINE
  8
_0-5_画層2-1
  6
CONTINUOUS
 62
    7
 10
34560.788665322267
 20
-12686.821423645693
 11
34560.788665322507
 21
-12217.997031570696
  0
LINE
  8
_0-5_画層2-1
  6
CONTINUOUS
 62
    7
 10
34360.178866036658
 20
-13146.861927426749
 11
34360.178866039641
 21
-11009.53278764801
  0
LINE
  8
_0-5_画層2-1
  6
CONTINUOUS
 62
    7
 10
34460.506305072558
 20
-13151.635263322094
 11
34460.50630507341
 21
-11003.788698914308
  0
LINE
  8
_0-5_画層2-1
  6
CONTINUOUS
 62
    7
 10
34468.196072728242
 20
-12217.997031570651
 11
34560.788665322507
 21
-12217.997031570696
  0
LINE
  8
_0-5_画層2-1
  6
CONTINUOUS
 62
    7
 10
34331.808712651371
 20
-12361.809312610932
 11
34580.94570232858
 21
-12361.809312611063
  0
LINE
  8
_0-5_画層2-1
  6
CONTINUOUS
 62
    7
 10
34331.808712651131
 20
-12549.179783190579
 11
34580.945702328507
 21
-12549.17978319071
  0
INSERT
  2
-185-_U211
  8
_0-4_______
 10
1418.4251463684177
 20
23716.897246370791
 41
1
 42
1
 50
0
  0
INSERT
  2
-186-_U212
  8
_0-4_______
 10
1418.4251463684177
 20
23716.897246370791
 41
1
 42
1
 50
0
  0
INSERT
  2
-187-_U213
  8
_0-4_______
 10
1418.4251463684177
 20
23716.897246370791
 41
1
 42
1
 50
0
  0
LINE
  8
_0-4_______
  6
CONTINUOUS
 62
    7
 10
35276.093022098139
 20
-14464.071236930227
 11
35602.885005437347
 21
-14137.279253590992
  0
LINE
  8
_0-4_______
  6
CONTINUOUS
 62
    7
 10
35202.43606572452
 20
-14464.071236930227
 11
35529.228049063749
 21
-14137.279253590992
  0
LINE
  8
_0-4_______
  6
CONTINUOUS
 62
    7
 10
35128.779109350893
 20
-14464.071236930227
 11
35455.571092690123
 21
-14137.279253590992
  0
INSERT
  2
-188-_U214
  8
_0-4_______
 10
1418.4251463684177
 20
23716.897246370791
 41
1
 42
1
 50
0
  0
INSERT
  2
-189-_U215
  8
_0-4_______
 10
1418.4251463684177
 20
23716.897246370791
 41
1
 42
1
 50
0
  0
INSERT
  2
-190-_U216
  8
_0-4_______
 10
1418.4251463684177
 20
23716.897246370791
 41
1
 42
1
 50
0
  0
TEXT
  8
_0-0_0
 62
    7
 10
15624.97420313082
 20
-18272.167941172815
 40
500
 41
0.75
 50
0
  1
A部詳細
  0
LINE
  8
_0-0_0
  6
CONTINUOUS
 62
    5
 10
15385.832389148947
 20
-18335.014391025608
 11
17431.645896128655
 21
-18335.014391025608
  0
TEXT
  8
_0-4_______
 62
    7
 10
16439.71950952744
 20
-18781.292263619878
 40
299.99997000000002
 41
0.75
 50
0
  1
S=1:20
  0
TEXT
  8
_0-e_画層3
 62
    7
 10
9429.7140158428047
 20
-10780.111759629506
 40
350
 41
0.75
 50
0
  1
①上部滑車金具
  0
LINE
  8
_0-e_画層3
  6
CONTINUOUS
 62
    7
 10
9231.4166803566623
 20
-10270.851685210078
 11
12232.769078607838
 21
-10270.851685210078
  0
LINE
  8
_0-e_画層3
  6
CONTINUOUS
 62
    7
 10
12232.769078607838
 20
-10270.851685210078
 11
12232.769078607838
 21
-10958.964930996006
  0
LINE
  8
_0-e_画層3
  6
CONTINUOUS
 62
    7
 10
12232.769078607838
 20
-10958.964930996006
 11
9231.4166803566623
 21
-10958.964930996006
  0
LINE
  8
_0-e_画層3
  6
CONTINUOUS
 62
    7
 10
9231.4166803566623
 20
-10958.964930996006
 11
9231.4166803566623
 21
-10270.851685210078
  0
TEXT
  8
_0-e_画層3
 62
    7
 10
20342.203269044669
 20
-10558.769490480068
 40
350
 41
0.75
 50
0
  1
②上部滑車金具
  0
LINE
  8
_0-e_画層3
  6
CONTINUOUS
 62
    7
 10
20177.374611212916
 20
-10049.509416060642
 11
23083.395319485855
 21
-10049.509416060642
  0
LINE
  8
_0-e_画層3
  6
CONTINUOUS
 62
    7
 10
23083.395319485855
 20
-10049.509416060642
 11
23083.395319485855
 21
-10737.622661846564
  0
LINE
  8
_0-e_画層3
  6
CONTINUOUS
 62
    7
 10
23083.395319485855
 20
-10737.622661846564
 11
20177.374611212916
 21
-10737.622661846564
  0
LINE
  8
_0-e_画層3
  6
CONTINUOUS
 62
    7
 10
20177.374611212916
 20
-10737.622661846564
 11
20177.374611212916
 21
-10049.509416060642
  0
LINE
  8
_1-4_通り芯
  6
DASHDOT
 62
    7
 10
19382.055212567881
 20
-18357.907592748757
 11
19382.055212567881
 21
-12926.553441684751
  0
INSERT
  2
-191-_U224
  8
_0-4_______
 10
1418.4251463684177
 20
23716.897246370791
 41
1
 42
1
 50
0
  0
LINE
  8
_1-4_通り芯
  6
DASHDOT
 62
    7
 10
24696.186211467448
 20
-18194.467564264953
 11
24696.186211467448
 21
-12390.178833265525
  0
LINE
  8
_1-3_画層1
  6
CONTINUOUS
 62
    7
 10
25436.883885886069
 20
-17160.699346378136
 11
25436.883885886069
 21
-12805.695483615449
  0
LINE
  8
_1-3_画層1
  6
CONTINUOUS
 62
    7
 10
23955.48853704887
 20
-17160.699346378162
 11
23955.48853704887
 21
-12805.695483615449
  0
ARC
  8
_1-3_画層1
  6
CONTINUOUS
 62
    7
 10
24325.837374258179
 20
-17840.565254509802
 40
774.19371882103735
 50
61.421188263516385
 51
118.5788117364836
  0
ARC
  8
_1-3_画層1
  6
CONTINUOUS
 62
    7
 10
24325.837374258179
 20
-16480.833438246522
 40
774.19371882103735
 50
241.4211882635164
 51
298.5788117364836
  0
ARC
  8
_1-3_画層1
  6
CONTINUOUS
 62
    7
 10
25066.53504867676
 20
-16480.833438246522
 40
774.19371882103735
 50
241.4211882635164
 51
298.5788117364836
  0
ARC
  8
_1-3_画層1
  6
CONTINUOUS
 62
    7
 10
23767.650821393978
 20
-13412.251306930444
 40
46.511627906976742
 50
269.99888305250317
 51
195.46816976523897
  0
ARC
  8
_1-3_画層1
  6
CONTINUOUS
 62
    7
 10
23767.65082139396
 20
-13412.251306930426
 40
93.023255813958116
 50
251.52675315966894
 51
216.40600626988666
  0
LINE
  8
_1-3_画層1
  6
CONTINUOUS
 62
    7
 10
23239.630224272958
 20
-13555.69548361546
 11
23055.488537048881
 21
-13082.969432143216
  0
LINE
  8
_1-3_画層1
  6
CONTINUOUS
 62
    7
 10
23955.48853704887
 20
-13555.69548361546
 11
23239.630224272958
 21
-13555.69548361546
  0
LINE
  8
_1-3_画層1
  6
CONTINUOUS
 62
    7
 10
23055.488537048859
 20
-12805.695483615449
 11
23055.488537048881
 21
-13082.969432143216
  0
CIRCLE
  8
_1-3_画層1
  6
CONTINUOUS
 62
    7
 10
22979.2546310625
 20
-13726.099373585168
 40
241.2790697672219
  0
LINE
  8
_0-5_画層2-1
  6
CONTINUOUS
 62
    7
 10
22528.448589686759
 20
-15321.618876250812
 11
22611.511446022021
 21
-15011.624076185928
  0
LINE
  8
_0-5_画層2-1
  6
CONTINUOUS
 62
    7
 10
22625.95716016724
 20
-14957.711937044309
 11
22709.020016502498
 21
-14647.717136979401
  0
LINE
  8
_0-5_画層2-1
  6
CONTINUOUS
 62
    7
 10
22709.020016502498
 20
-14647.717136979401
 11
22588.700304480524
 21
-14615.477567309539
  0
LINE
  8
_0-5_画層2-1
  6
CONTINUOUS
 62
    7
 10
22532.88635099227
 20
-14600.52226354598
 11
22484.386103412078
 21
-14587.526661374124
  0
LINE
  8
_0-5_画層2-1
  6
CONTINUOUS
 62
    7
 10
22528.448589686759
 20
-15321.618876250812
 11
22469.516982035151
 21
-15305.828199571932
  0
LINE
  8
_0-5_画層2-1
  6
CONTINUOUS
 62
    7
 10
22413.703028546948
 20
-15290.872895808367
 11
22303.814676596299
 21
-15261.428400645638
  0
LINE
  8
_0-5_画層2-1
  6
CONTINUOUS
 62
    7
 10
22303.814676596299
 20
-15261.428400645638
 11
22228.576762433302
 21
-14937.40797883185
  0
LINE
  8
_1-6_画層1-1
  6
CONTINUOUS
 62
  150
 10
22215.616698317139
 20
-14881.5940253436
 11
22214.393259531811
 21
-14876.325150525661
  0
LINE
  8
_0-5_画層2-1
  6
CONTINUOUS
 62
    7
 10
22214.393259531811
 20
-14876.325150525661
 11
22484.386103412078
 21
-14587.526661374124
  0
LINE
  8
_1-4_通り芯
  6
DASHDOT
 62
    7
 10
22370.161545720061
 20
-14790.245846718068
 11
22306.252900570998
 21
-15028.756157457241
  0
LINE
  8
_1-4_通り芯
  6
DASHDOT
 62
    7
 10
22526.001174489138
 20
-14959.820239693619
 11
22294.178976179799
 21
-14897.703668869042
  0
ARC
  8
_1-3_画層1
  6
CONTINUOUS
 62
    7
 10
22338.207223145459
 20
-14909.501002087633
 40
37.20930232558139
 50
228.59037789056421
 51
131.40962210943579
  0
ARC
  8
_1-3_画層1
  6
CONTINUOUS
 62
    7
 10
22338.207223145459
 20
-14909.501002087633
 40
74.418604651162781
 50
202.02431283702381
 51
157.97568716297619
  0
LINE
  8
_1-4_通り芯
  6
DASHDOT
 62
    7
 10
22556.939109947529
 20
-15203.485563590801
 11
22325.11691163815
 21
-15141.368992766109
  0
LINE
  8
_1-4_通り芯
  6
DASHDOT
 62
    7
 10
22472.982333367334
 20
-15053.172122808843
 11
22409.073688218225
 21
-15291.682433548056
  0
LINE
  8
_1-4_通り芯
  6
DASHDOT
 62
    7
 10
22556.939109947529
 20
-15203.485563590801
 11
22325.11691163815
 21
-15141.368992766109
  0
ARC
  8
_1-3_画層1
  6
CONTINUOUS
 62
    7
 10
22441.028010792819
 20
-15172.427278178458
 40
37.20930232558139
 50
319.96406106387218
 51
222.74692846027241
  0
ARC
  8
_1-3_画層1
  6
CONTINUOUS
 62
    7
 10
22441.028010792819
 20
-15172.427278178458
 40
74.418604651162781
 50
292.50850388486651
 51
248.4582285893726
  0
LINE
  8
_1-4_通り芯
  6
DASHDOT
 62
    7
 10
22674.626874485279
 20
-14764.26884690656
 11
22442.8046761759
 21
-14702.152276081899
  0
LINE
  8
_1-4_通り芯
  6
DASHDOT
 62
    7
 10
22526.761452756058
 20
-14852.465716863799
 11
22590.670097905171
 21
-14613.955406124604
  0
LINE
  8
_1-4_通り芯
  6
DASHDOT
 62
    7
 10
22674.626874485279
 20
-14764.26884690656
 11
22442.8046761759
 21
-14702.152276081899
  0
ARC
  8
_1-3_画層1
  6
CONTINUOUS
 62
    7
 10
22558.715775330609
 20
-14733.21056149419
 40
37.20930232558139
 50
133.96077780872281
 51
36.309102390219778
  0
ARC
  8
_1-3_画層1
  6
CONTINUOUS
 62
    7
 10
22558.715775330609
 20
-14733.21056149419
 40
74.418604651162781
 50
110.30899505200391
 51
66.239331740358523
  0
LINE
  8
_1-4_通り芯
  6
DASHDOT
 62
    7
 10
22715.194970873828
 20
-15010.51456464806
 11
22407.730430555646
 21
-14928.129689368399
  0
LINE
  8
_1-4_通り芯
  6
DASHDOT
 62
    7
 10
22555.59585228482
 20
-14839.93281941108
 11
22491.68720713571
 21
-15078.443130150277
  0
LINE
  8
_1-4_通り芯
  6
DASHDOT
 62
    7
 10
22639.552628865029
 20
-14990.246260193033
 11
22407.730430555646
 21
-14928.129689368399
  0
ARC
  8
_1-3_画層1
  6
CONTINUOUS
 62
    7
 10
22523.641529710319
 20
-14959.187974780691
 40
37.20930232558139
 50
32.113133134965871
 51
297.88686686525602
  0
ARC
  8
_1-3_画層1
  6
CONTINUOUS
 62
    7
 10
22523.641529710319
 20
-14959.187974780691
 40
74.418604651162781
 50
7.0243128369105907
 51
322.97568716308405
  0
LINE
  8
_0-5_画層2-1
  6
CONTINUOUS
 62
    7
 10
22681.016044230371
 20
-15030.247777146144
 11
22547.371088922489
 21
-14994.43771929889
  0
LINE
  8
_0-5_画層2-1
  6
CONTINUOUS
 62
    7
 10
22560.793984918884
 20
-14940.251516860264
 11
22695.461758375579
 21
-14976.335638004532
  0
ARC
  8
_0-5_画層2-1
  6
CONTINUOUS
 62
    7
 10
22688.23890130295
 20
-15003.291707575301
 40
27.906976744186053
 50
254.99999999962989
 51
74.99999999962985
  0
ARC
  8
_0-5_画層2-1
  6
CONTINUOUS
 62
    7
 10
22553.858072763178
 20
-14967.28447308982
 40
27.906976744186053
 50
74.99999999962985
 51
254.99999999962989
  0
LINE
  8
_1-3_画層1
  6
CONTINUOUS
 62
    7
 10
22630.443952709251
 20
-16336.747359707124
 11
22630.443952709251
 21
-15016.697026063497
  0
LINE
  8
_1-3_画層1
  6
CONTINUOUS
 62
    7
 10
22676.955580616221
 20
-16336.747359707124
 11
22676.955580616221
 21
-15029.15977919983
  0
LINE
  8
_1-3_画層1
  6
CONTINUOUS
 62
    7
 10
22695.461758375634
 20
-14976.335638004473
 11
23767.64991467704
 21
-13458.762934828594
  0
LINE
  8
_1-3_画層1
  6
CONTINUOUS
 62
    7
 10
22643.5847782989
 20
-14962.435243087202
 11
23722.82390201035
 21
-13424.656097502282
  0
LINE
  8
_0-5_画層2-1
  6
CONTINUOUS
 62
    7
 10
22532.88635099227
 20
-14711.794348219684
 11
22532.88635099227
 21
-14484.09477873683
  0
LINE
  8
_0-5_画層2-1
  6
CONTINUOUS
 62
    7
 10
22588.700304480608
 20
-14484.09477873683
 11
22588.700304480524
 21
-14711.794348219621
  0
ARC
  8
_0-5_画層2-1
  6
CONTINUOUS
 62
    7
 10
22560.79332773649
 20
-14711.794348219621
 40
27.906976744186053
 50
180
 51
0
  0
ARC
  8
_0-5_画層2-1
  6
CONTINUOUS
 62
    7
 10
22560.79332773649
 20
-14484.09477873683
 40
27.906976744186053
 50
0
 51
180
  0
ARC
  8
_1-3_画層1
  6
CONTINUOUS
 62
    7
 10
22559.765343000108
 20
-14480.989861348387
 40
84.483222699792549
 50
160.1717499058019
 51
249.8971361433731
  0
ARC
  8
_1-3_画層1
  6
CONTINUOUS
 62
    7
 10
22559.765343000108
 20
-14480.989861348387
 40
38.123423136385973
 50
318.28587383046482
 51
333.35458454801898
  0
ARC
  8
_1-3_画層1
  6
CONTINUOUS
 62
    7
 10
22559.13358946595
 20
-14480.751059864071
 40
84.483222699792549
 50
288.93949577190574
 51
338.41528032316086
  0
LINE
  8
_1-3_画層1
  6
CONTINUOUS
 62
    7
 10
22593.733285685521
 20
-14498.29807504468
 11
22598.310112525138
 21
-14281.737847640579
  0
ARC
  8
_1-3_画層1
  6
CONTINUOUS
 62
    7
 10
22559.765343000108
 20
-14480.989861348387
 40
38.123423136385973
 50
164.57290006196521
 51
223.70906490679118
  0
LINE
  8
_1-3_画層1
  6
CONTINUOUS
 62
    7
 10
22637.692394803038
 20
-14511.8304585354
 11
22642.69507197908
 21
-14285.719600242248
  0
LINE
  8
_1-3_画層1
  6
CONTINUOUS
 62
    7
 10
22598.310112525138
 20
-14281.737847640579
 11
22679.39153377309
 21
-14067.235519218077
  0
LINE
  8
_1-3_画層1
  6
CONTINUOUS
 62
    7
 10
22642.69507197908
 20
-14285.719600242248
 11
22719.544443744398
 21
-14082.413233286059
  0
LINE
  8
_1-3_画層1
  6
CONTINUOUS
 62
    7
 10
22480.29082327132
 20
-14452.333001233734
 11
22737.975561295269
 21
-13726.099373585168
  0
LINE
  8
_1-3_画層1
  6
CONTINUOUS
 62
    7
 10
22523.015518509761
 20
-14470.848569934111
 11
22763.74196189352
 21
-13834.588446469968
  0
LINE
  8
_1-3_画層1
  6
CONTINUOUS
 62
    7
 10
22679.39153377309
 20
-14067.235519218077
 11
22719.544443744398
 21
-14082.413233286059
  0
LINE
  8
_1-3_画層1
  6
CONTINUOUS
 62
    7
 10
22596.6733502024
 20
-14107.243397989771
 11
22704.711961464709
 21
-14148.081761914211
  0
LINE
  8
_1-3_画層1
  6
CONTINUOUS
 62
    7
 10
22565.959711588577
 20
-14188.496870062374
 11
22673.998322851079
 21
-14229.33523398682
  0
LINE
  8
_1-3_画層1
  6
CONTINUOUS
 62
    7
 10
23160.514925867268
 20
-13885.348533818513
 11
23160.514925867268
 21
-17192.225437020646
  0
LINE
  8
_1-3_画層1
  6
CONTINUOUS
 62
    7
 10
23207.026553774238
 20
-13805.695483615302
 11
23207.026553774238
 21
-17196.719422742819
  0
ARC
  8
_1-3_画層1
  6
CONTINUOUS
 62
    7
 10
22440.687654243404
 20
-15415.28213581467
 40
84.483222699792549
 50
0.8782347911066552
 51
70.047363536728056
  0
ARC
  8
_1-3_画層1
  6
CONTINUOUS
 62
    7
 10
22440.687654243404
 20
-15415.28213581467
 40
38.123423136385973
 50
135.05804218676261
 51
173.7055710458431
  0
ARC
  8
_1-3_画層1
  6
CONTINUOUS
 62
    7
 10
22441.36303463755
 20
-15415.28213581467
 40
84.483222699792549
 50
109.11118465057449
 51
179.12176520805971
  0
LINE
  8
_1-3_画層1
  6
CONTINUOUS
 62
    7
 10
22402.794053567359
 20
-15411.102372731926
 11
22475.084391942379
 21
-15615.291957223621
  0
ARC
  8
_1-3_画層1
  6
CONTINUOUS
 62
    7
 10
22440.687654243404
 20
-15415.28213581467
 40
38.123423136385973
 50
5.2793849466836917
 51
40.8687583788982
  0
LINE
  8
_1-3_画層1
  6
CONTINUOUS
 62
    7
 10
22356.889736422774
 20
-15413.987220189387
 11
22432.158651604859
 21
-15627.261075653019
  0
LINE
  8
_1-3_画層1
  6
CONTINUOUS
 62
    7
 10
22475.084391942379
 20
-15615.291957223621
 11
22475.08439194204
 21
-15844.60712412332
  0
LINE
  8
_1-3_画層1
  6
CONTINUOUS
 62
    7
 10
22432.158651604859
 20
-15627.261075653019
 11
22432.158651604768
 21
-15844.60712412332
  0
LINE
  8
_1-3_画層1
  6
CONTINUOUS
 62
    7
 10
22525.160952458031
 20
-15413.987220189591
 11
22525.1609524573
 21
-16404.848725401258
  0
LINE
  8
_1-3_画層1
  6
CONTINUOUS
 62
    7
 10
22478.64935281398
 20
-15411.774311236019
 11
22478.649352814071
 21
-16407.511673424917
  0
LINE
  8
_1-3_画層1
  6
CONTINUOUS
 62
    7
 10
22475.08439194204
 20
-15844.60712412332
 11
22432.158651604768
 21
-15844.60712412332
  0
LINE
  8
_1-3_画層1
  6
CONTINUOUS
 62
    7
 10
22538.31329870355
 20
-15777.936038885469
 11
22422.813889650828
 21
-15777.936038885469
  0
LINE
  8
_1-3_画層1
  6
CONTINUOUS
 62
    7
 10
22538.313298703648
 20
-15691.071464283727
 11
22422.813889650788
 21
-15691.071464283727
  0
ARC
  8
_1-3_画層1
  6
CONTINUOUS
 62
    7
 10
22082.600676918588
 20
-14909.501002087671
 40
84.483222699792549
 50
19.288543234210309
 51
89.121765208893351
  0
ARC
  8
_1-3_画層1
  6
CONTINUOUS
 62
    7
 10
22082.600676918588
 20
-14909.501002087671
 40
38.123423136385973
 50
276.29442895498562
 51
313.08202446020113
  0
ARC
  8
_1-3_画層1
  6
CONTINUOUS
 62
    7
 10
22082.60067691869
 20
-14908.825621693484
 40
84.483222699792549
 50
270.87823479173198
 51
340.22545247098702
  0
LINE
  8
_1-3_画層1
  6
CONTINUOUS
 62
    7
 10
22086.780440001341
 20
-14947.394602763705
 11
21882.590855509741
 21
-14875.104264388523
  0
ARC
  8
_1-3_画層1
  6
CONTINUOUS
 62
    7
 10
22082.600676918588
 20
-14909.501002087671
 40
38.123423136385973
 50
46.917975539798832
 51
84.720615053127915
  0
LINE
  8
_1-3_画層1
  6
CONTINUOUS
 62
    7
 10
22083.895592543871
 20
-14993.298919908262
 11
21870.621737080288
 21
-14918.030004726063
  0
LINE
  8
_1-3_画層1
  6
CONTINUOUS
 62
    7
 10
21882.590855509741
 20
-14875.104264388523
 11
21653.27568861008
 21
-14875.104264388643
  0
LINE
  8
_1-3_画層1
  6
CONTINUOUS
 62
    7
 10
21870.621737080288
 20
-14918.030004726063
 11
21653.27568861004
 21
-14918.030004725921
  0
LINE
  8
_1-3_画層1
  6
CONTINUOUS
 62
    7
 10
22083.89559254382
 20
-14825.027703873047
 11
21093.034087332071
 21
-14825.027703872945
  0
LINE
  8
_1-3_画層1
  6
CONTINUOUS
 62
    7
 10
22086.108501497289
 20
-14871.539303517091
 11
21090.371139308379
 21
-14871.539303516221
  0
LINE
  8
_1-3_画層1
  6
CONTINUOUS
 62
    7
 10
21806.811348449668
 20
-14811.875357627179
 11
21806.811348449584
 21
-14927.374766680072
  0
LINE
  8
_0-5_画層2-1
  6
CONTINUOUS
 62
    7
 10
22338.207223145659
 20
-14937.40797883185
 11
22110.507653662815
 21
-14937.40797883185
  0
LINE
  8
_0-5_画層2-1
  6
CONTINUOUS
 62
    7
 10
22110.507653662815
 20
-14881.594025343549
 11
22338.20722314555
 21
-14881.5940253436
  0
ARC
  8
_0-5_画層2-1
  6
CONTINUOUS
 62
    7
 10
22338.20722314555
 20
-14909.501002087671
 40
27.906976744186053
 50
270
 51
90
  0
ARC
  8
_0-5_画層2-1
  6
CONTINUOUS
 62
    7
 10
22110.507653662815
 20
-14909.501002087671
 40
27.906976744186053
 50
90
 51
270
  0
LINE
  8
_0-5_画層2-1
  6
CONTINUOUS
 62
    7
 10
22413.703028546948
 20
-15403.609000104791
 11
22413.703028546948
 21
-15175.909430621919
  0
LINE
  8
_0-5_画層2-1
  6
CONTINUOUS
 62
    7
 10
22469.516982035246
 20
-15175.909430621919
 11
22469.516982035151
 21
-15403.609000104712
  0
ARC
  8
_0-5_画層2-1
  6
CONTINUOUS
 62
    7
 10
22441.610005291121
 20
-15403.609000104712
 40
27.906976744186053
 50
180
 51
0
  0
ARC
  8
_0-5_画層2-1
  6
CONTINUOUS
 62
    7
 10
22441.610005291121
 20
-15175.909430621919
 40
27.906976744186053
 50
0
 51
180
  0
INSERT
  2
-059-_D56
  8
_0-b_寸法20
 10
1418.4251463684177
 20
23716.897246370791
 41
1
 42
1
 50
0
  0
LINE
  8
_0-4_______
  6
CONTINUOUS
 62
    5
 10
23055.48853704887
 20
-12805.695483615449
 11
25436.883885886069
 21
-12805.695483615449
  0
ARC
  8
_1-3_画層1
  6
CONTINUOUS
 62
    7
 10
23345.786073799009
 20
-13408.506191959992
 40
46.511627906976742
 50
269.99888305250317
 51
195.46816976523897
  0
ARC
  8
_1-3_画層1
  6
CONTINUOUS
 62
    7
 10
23345.786073799009
 20
-13408.506191959992
 40
93.023255813953483
 50
245.70438888428038
 51
210.73225255482151
  0
LINE
  8
_0-5_画層2-1
  6
CONTINUOUS
 62
    7
 10
23296.92514636842
 20
-13425.202753629208
 11
23297.42514636842
 21
-13424.702753629208
  0
LINE
  8
_0-5_画層2-1
  6
CONTINUOUS
 62
    7
 10
23297.42514636842
 20
-13424.702753629208
 11
23297.92514636842
 21
-13424.302753629207
  0
LINE
  8
_0-5_画層2-1
  6
CONTINUOUS
 62
    7
 10
23297.92514636842
 20
-13424.302753629207
 11
23298.42514636842
 21
-13423.802753629207
  0
LINE
  8
_0-5_画層2-1
  6
CONTINUOUS
 62
    7
 10
23298.42514636842
 20
-13423.802753629207
 11
23298.92514636842
 21
-13423.402753629211
  0
LINE
  8
_0-5_画層2-1
  6
CONTINUOUS
 62
    7
 10
23298.92514636842
 20
-13423.402753629211
 11
23299.525146368418
 21
-13422.902753629211
  0
LINE
  8
_0-5_画層2-1
  6
CONTINUOUS
 62
    7
 10
23299.525146368418
 20
-13422.902753629211
 11
23300.025146368418
 21
-13422.502753629209
  0
LINE
  8
_0-5_画層2-1
  6
CONTINUOUS
 62
    7
 10
23300.025146368418
 20
-13422.502753629209
 11
23300.62514636842
 21
-13422.102753629208
  0
LINE
  8
_0-5_画層2-1
  6
CONTINUOUS
 62
    7
 10
23300.62514636842
 20
-13422.102753629208
 11
23301.12514636842
 21
-13421.702753629212
  0
LINE
  8
_0-5_画層2-1
  6
CONTINUOUS
 62
    7
 10
23301.12514636842
 20
-13421.702753629212
 11
23301.725146368419
 21
-13421.402753629212
  0
LINE
  8
_0-5_画層2-1
  6
CONTINUOUS
 62
    7
 10
23301.725146368419
 20
-13421.402753629212
 11
23302.325146368421
 21
-13421.002753629211
  0
LINE
  8
_0-5_画層2-1
  6
CONTINUOUS
 62
    7
 10
23302.325146368421
 20
-13421.002753629211
 11
23302.92514636842
 21
-13420.702753629206
  0
LINE
  8
_0-5_画層2-1
  6
CONTINUOUS
 62
    7
 10
23302.92514636842
 20
-13420.702753629206
 11
23303.525146368418
 21
-13420.302753629205
  0
LINE
  8
_0-5_画層2-1
  6
CONTINUOUS
 62
    7
 10
23303.525146368418
 20
-13420.302753629205
 11
23304.12514636842
 21
-13420.002753629211
  0
LINE
  8
_0-5_画層2-1
  6
CONTINUOUS
 62
    7
 10
23304.12514636842
 20
-13420.002753629211
 11
23304.725146368419
 21
-13419.702753629206
  0
LINE
  8
_0-5_画層2-1
  6
CONTINUOUS
 62
    7
 10
23304.725146368419
 20
-13419.702753629206
 11
23305.325146368421
 21
-13419.402753629214
  0
LINE
  8
_0-5_画層2-1
  6
CONTINUOUS
 62
    7
 10
23305.325146368421
 20
-13419.402753629214
 11
23306.025146368418
 21
-13419.102753629209
  0
LINE
  8
_0-5_画層2-1
  6
CONTINUOUS
 62
    7
 10
23306.025146368418
 20
-13419.102753629209
 11
23306.62514636842
 21
-13418.902753629214
  0
LINE
  8
_0-5_画層2-1
  6
CONTINUOUS
 62
    7
 10
23306.62514636842
 20
-13418.902753629214
 11
23307.225146368419
 21
-13418.702753629208
  0
LINE
  8
_0-5_画層2-1
  6
CONTINUOUS
 62
    7
 10
23307.225146368419
 20
-13418.702753629208
 11
23307.92514636842
 21
-13418.402753629214
  0
LINE
  8
_0-5_画層2-1
  6
CONTINUOUS
 62
    7
 10
23307.92514636842
 20
-13418.402753629214
 11
23308.525146368418
 21
-13418.202753629208
  0
LINE
  8
_0-5_画層2-1
  6
CONTINUOUS
 62
    7
 10
23308.525146368418
 20
-13418.202753629208
 11
23309.225146368419
 21
-13418.002753629213
  0
LINE
  8
_0-5_画層2-1
  6
CONTINUOUS
 62
    7
 10
23309.225146368419
 20
-13418.002753629213
 11
23309.92514636842
 21
-13417.902753629209
  0
LINE
  8
_0-5_画層2-1
  6
CONTINUOUS
 62
    7
 10
23309.92514636842
 20
-13417.902753629209
 11
23310.525146368418
 21
-13417.702753629208
  0
LINE
  8
_0-5_画層2-1
  6
CONTINUOUS
 62
    7
 10
23310.525146368418
 20
-13417.702753629208
 11
23311.225146368419
 21
-13417.602753629211
  0
LINE
  8
_0-5_画層2-1
  6
CONTINUOUS
 62
    7
 10
23311.225146368419
 20
-13417.602753629211
 11
23311.92514636842
 21
-13417.402753629211
  0
LINE
  8
_0-5_画層2-1
  6
CONTINUOUS
 62
    7
 10
23311.92514636842
 20
-13417.402753629211
 11
23312.525146368418
 21
-13417.302753629207
  0
LINE
  8
_0-5_画層2-1
  6
CONTINUOUS
 62
    7
 10
23312.525146368418
 20
-13417.302753629207
 11
23313.225146368419
 21
-13417.20275362921
  0
LINE
  8
_0-5_画層2-1
  6
CONTINUOUS
 62
    7
 10
23313.225146368419
 20
-13417.20275362921
 11
23313.92514636842
 21
-13417.20275362921
  0
LINE
  8
_0-5_画層2-1
  6
CONTINUOUS
 62
    7
 10
23313.92514636842
 20
-13417.20275362921
 11
23314.62514636842
 21
-13417.102753629211
  0
LINE
  8
_0-5_画層2-1
  6
CONTINUOUS
 62
    7
 10
23314.62514636842
 20
-13417.102753629211
 11
23315.325146368421
 21
-13417.102753629211
  0
LINE
  8
_0-5_画層2-1
  6
CONTINUOUS
 62
    7
 10
23315.325146368421
 20
-13417.102753629211
 11
23316.025146368418
 21
-13417.002753629207
  0
LINE
  8
_0-5_画層2-1
  6
CONTINUOUS
 62
    7
 10
23316.025146368418
 20
-13417.002753629207
 11
23316.62514636842
 21
-13417.002753629207
  0
LINE
  8
_0-5_画層2-1
  6
CONTINUOUS
 62
    7
 10
23316.62514636842
 20
-13417.002753629207
 11
23317.325146368421
 21
-13417.002753629207
  0
LINE
  8
_0-5_画層2-1
  6
CONTINUOUS
 62
    7
 10
23317.325146368421
 20
-13417.002753629207
 11
23318.025146368418
 21
-13417.102753629211
  0
LINE
  8
_0-5_画層2-1
  6
CONTINUOUS
 62
    7
 10
23318.025146368418
 20
-13417.102753629211
 11
23318.725146368419
 21
-13417.102753629211
  0
LINE
  8
_0-5_画層2-1
  6
CONTINUOUS
 62
    7
 10
23318.725146368419
 20
-13417.102753629211
 11
23319.42514636842
 21
-13417.20275362921
  0
LINE
  8
_0-5_画層2-1
  6
CONTINUOUS
 62
    7
 10
23319.42514636842
 20
-13417.20275362921
 11
23320.12514636842
 21
-13417.20275362921
  0
LINE
  8
_0-5_画層2-1
  6
CONTINUOUS
 62
    7
 10
23320.12514636842
 20
-13417.20275362921
 11
23320.725146368419
 21
-13417.302753629207
  0
LINE
  8
_0-5_画層2-1
  6
CONTINUOUS
 62
    7
 10
23320.725146368419
 20
-13417.302753629207
 11
23321.42514636842
 21
-13417.402753629211
  0
LINE
  8
_0-5_画層2-1
  6
CONTINUOUS
 62
    7
 10
23321.42514636842
 20
-13417.402753629211
 11
23322.12514636842
 21
-13417.602753629211
  0
LINE
  8
_0-5_画層2-1
  6
CONTINUOUS
 62
    7
 10
23322.12514636842
 20
-13417.602753629211
 11
23322.825146368421
 21
-13417.702753629208
  0
LINE
  8
_0-5_画層2-1
  6
CONTINUOUS
 62
    7
 10
23322.825146368421
 20
-13417.702753629208
 11
23323.42514636842
 21
-13417.902753629209
  0
LINE
  8
_0-5_画層2-1
  6
CONTINUOUS
 62
    7
 10
23323.42514636842
 20
-13417.902753629209
 11
23324.12514636842
 21
-13418.002753629213
  0
LINE
  8
_0-5_画層2-1
  6
CONTINUOUS
 62
    7
 10
23324.12514636842
 20
-13418.002753629213
 11
23324.725146368419
 21
-13418.202753629208
  0
LINE
  8
_0-5_画層2-1
  6
CONTINUOUS
 62
    7
 10
23324.725146368419
 20
-13418.202753629208
 11
23325.42514636842
 21
-13418.402753629214
  0
LINE
  8
_0-5_画層2-1
  6
CONTINUOUS
 62
    7
 10
23325.42514636842
 20
-13418.402753629214
 11
23326.025146368418
 21
-13418.702753629208
  0
LINE
  8
_0-5_画層2-1
  6
CONTINUOUS
 62
    7
 10
23326.025146368418
 20
-13418.702753629208
 11
23326.725146368419
 21
-13418.902753629214
  0
LINE
  8
_0-5_画層2-1
  6
CONTINUOUS
 62
    7
 10
23326.725146368419
 20
-13418.902753629214
 11
23327.325146368421
 21
-13419.102753629209
  0
LINE
  8
_0-5_画層2-1
  6
CONTINUOUS
 62
    7
 10
23327.325146368421
 20
-13419.102753629209
 11
23327.92514636842
 21
-13419.402753629214
  0
LINE
  8
_0-5_画層2-1
  6
CONTINUOUS
 62
    7
 10
23327.92514636842
 20
-13419.402753629214
 11
23328.62514636842
 21
-13419.702753629206
  0
LINE
  8
_0-5_画層2-1
  6
CONTINUOUS
 62
    7
 10
23328.62514636842
 20
-13419.702753629206
 11
23329.225146368419
 21
-13420.002753629211
  0
LINE
  8
_0-5_画層2-1
  6
CONTINUOUS
 62
    7
 10
23329.225146368419
 20
-13420.002753629211
 11
23329.825146368421
 21
-13420.302753629205
  0
LINE
  8
_0-5_画層2-1
  6
CONTINUOUS
 62
    7
 10
23329.825146368421
 20
-13420.302753629205
 11
23330.42514636842
 21
-13420.702753629206
  0
LINE
  8
_0-5_画層2-1
  6
CONTINUOUS
 62
    7
 10
23330.42514636842
 20
-13420.702753629206
 11
23331.025146368418
 21
-13421.002753629211
  0
LINE
  8
_0-5_画層2-1
  6
CONTINUOUS
 62
    7
 10
23331.025146368418
 20
-13421.002753629211
 11
23331.62514636842
 21
-13421.402753629212
  0
LINE
  8
_0-5_画層2-1
  6
CONTINUOUS
 62
    7
 10
23331.62514636842
 20
-13421.402753629212
 11
23332.12514636842
 21
-13421.702753629212
  0
LINE
  8
_0-5_画層2-1
  6
CONTINUOUS
 62
    7
 10
23332.12514636842
 20
-13421.702753629212
 11
23332.725146368419
 21
-13422.102753629208
  0
LINE
  8
_0-5_画層2-1
  6
CONTINUOUS
 62
    7
 10
23332.725146368419
 20
-13422.102753629208
 11
23333.325146368421
 21
-13422.502753629209
  0
LINE
  8
_0-5_画層2-1
  6
CONTINUOUS
 62
    7
 10
23333.325146368421
 20
-13422.502753629209
 11
23333.825146368421
 21
-13422.902753629211
  0
LINE
  8
_0-5_画層2-1
  6
CONTINUOUS
 62
    7
 10
23333.825146368421
 20
-13422.902753629211
 11
23334.325146368421
 21
-13423.402753629211
  0
LINE
  8
_0-5_画層2-1
  6
CONTINUOUS
 62
    7
 10
23334.325146368421
 20
-13423.402753629211
 11
23334.92514636842
 21
-13423.802753629207
  0
LINE
  8
_0-5_画層2-1
  6
CONTINUOUS
 62
    7
 10
23334.92514636842
 20
-13423.802753629207
 11
23335.42514636842
 21
-13424.302753629207
  0
LINE
  8
_0-5_画層2-1
  6
CONTINUOUS
 62
    7
 10
23335.42514636842
 20
-13424.302753629207
 11
23335.92514636842
 21
-13424.702753629208
  0
LINE
  8
_0-5_画層2-1
  6
CONTINUOUS
 62
    7
 10
23335.92514636842
 20
-13424.702753629208
 11
23336.42514636842
 21
-13425.202753629208
  0
LINE
  8
_0-5_画層2-1
  6
CONTINUOUS
 62
    7
 10
23336.42514636842
 20
-13425.202753629208
 11
23336.92514636842
 21
-13425.702753629208
  0
LINE
  8
_0-5_画層2-1
  6
CONTINUOUS
 62
    7
 10
23336.92514636842
 20
-13425.702753629208
 11
23337.325146368421
 21
-13426.202753629206
  0
LINE
  8
_0-5_画層2-1
  6
CONTINUOUS
 62
    7
 10
23337.325146368421
 20
-13426.202753629206
 11
23337.825146368421
 21
-13426.702753629206
  0
LINE
  8
_0-5_画層2-1
  6
CONTINUOUS
 62
    7
 10
23337.825146368421
 20
-13426.702753629206
 11
23338.225146368419
 21
-13427.202753629206
  0
LINE
  8
_0-5_画層2-1
  6
CONTINUOUS
 62
    7
 10
23338.225146368419
 20
-13427.202753629206
 11
23338.62514636842
 21
-13427.802753629208
  0
LINE
  8
_0-5_画層2-1
  6
CONTINUOUS
 62
    7
 10
23338.62514636842
 20
-13427.802753629208
 11
23339.12514636842
 21
-13428.302753629208
  0
LINE
  8
_0-5_画層2-1
  6
CONTINUOUS
 62
    7
 10
23339.12514636842
 20
-13428.302753629208
 11
23339.525146368418
 21
-13428.902753629211
  0
LINE
  8
_0-5_画層2-1
  6
CONTINUOUS
 62
    7
 10
23339.525146368418
 20
-13428.902753629211
 11
23339.825146368421
 21
-13429.402753629211
  0
LINE
  8
_0-5_画層2-1
  6
CONTINUOUS
 62
    7
 10
23339.825146368421
 20
-13429.402753629211
 11
23340.225146368419
 21
-13430.002753629213
  0
LINE
  8
_0-5_画層2-1
  6
CONTINUOUS
 62
    7
 10
23340.225146368419
 20
-13430.002753629213
 11
23340.62514636842
 21
-13430.602753629211
  0
LINE
  8
_0-5_画層2-1
  6
CONTINUOUS
 62
    7
 10
23340.62514636842
 20
-13430.602753629211
 11
23340.92514636842
 21
-13431.202753629208
  0
LINE
  8
_0-5_画層2-1
  6
CONTINUOUS
 62
    7
 10
23340.92514636842
 20
-13431.202753629208
 11
23341.325146368421
 21
-13431.802753629205
  0
LINE
  8
_0-5_画層2-1
  6
CONTINUOUS
 62
    7
 10
23341.325146368421
 20
-13431.802753629205
 11
23341.62514636842
 21
-13432.402753629214
  0
LINE
  8
_0-5_画層2-1
  6
CONTINUOUS
 62
    7
 10
23341.62514636842
 20
-13432.402753629214
 11
23341.92514636842
 21
-13433.002753629211
  0
LINE
  8
_0-5_画層2-1
  6
CONTINUOUS
 62
    7
 10
23341.92514636842
 20
-13433.002753629211
 11
23342.225146368419
 21
-13433.602753629208
  0
LINE
  8
_0-5_画層2-1
  6
CONTINUOUS
 62
    7
 10
23342.225146368419
 20
-13433.602753629208
 11
23342.42514636842
 21
-13434.302753629208
  0
LINE
  8
_0-5_画層2-1
  6
CONTINUOUS
 62
    7
 10
23342.42514636842
 20
-13434.302753629208
 11
23342.725146368419
 21
-13434.902753629211
  0
LINE
  8
_0-5_画層2-1
  6
CONTINUOUS
 62
    7
 10
23342.725146368419
 20
-13434.902753629211
 11
23342.92514636842
 21
-13435.502753629209
  0
LINE
  8
_0-5_画層2-1
  6
CONTINUOUS
 62
    7
 10
23342.92514636842
 20
-13435.502753629209
 11
23343.12514636842
 21
-13436.202753629208
  0
LINE
  8
_0-5_画層2-1
  6
CONTINUOUS
 62
    7
 10
23343.12514636842
 20
-13436.202753629208
 11
23343.325146368421
 21
-13436.802753629207
  0
LINE
  8
_0-5_画層2-1
  6
CONTINUOUS
 62
    7
 10
23343.325146368421
 20
-13436.802753629207
 11
23343.525146368418
 21
-13437.502753629213
  0
LINE
  8
_0-5_画層2-1
  6
CONTINUOUS
 62
    7
 10
23343.525146368418
 20
-13437.502753629213
 11
23343.725146368419
 21
-13438.202753629208
  0
LINE
  8
_0-5_画層2-1
  6
CONTINUOUS
 62
    7
 10
23343.725146368419
 20
-13438.202753629208
 11
23343.92514636842
 21
-13438.802753629205
  0
LINE
  8
_0-5_画層2-1
  6
CONTINUOUS
 62
    7
 10
23343.92514636842
 20
-13438.802753629205
 11
23344.025146368418
 21
-13439.502753629211
  0
LINE
  8
_0-5_画層2-1
  6
CONTINUOUS
 62
    7
 10
23344.025146368418
 20
-13439.502753629211
 11
23344.12514636842
 21
-13440.202753629204
  0
LINE
  8
_0-5_画層2-1
  6
CONTINUOUS
 62
    7
 10
23344.12514636842
 20
-13440.202753629204
 11
23344.225146368419
 21
-13440.802753629208
  0
LINE
  8
_0-5_画層2-1
  6
CONTINUOUS
 62
    7
 10
23344.225146368419
 20
-13440.802753629208
 11
23344.325146368421
 21
-13441.502753629209
  0
LINE
  8
_0-5_画層2-1
  6
CONTINUOUS
 62
    7
 10
23344.325146368421
 20
-13441.502753629209
 11
23344.42514636842
 21
-13442.20275362921
  0
LINE
  8
_0-5_画層2-1
  6
CONTINUOUS
 62
    7
 10
23344.42514636842
 20
-13442.20275362921
 11
23344.525146368418
 21
-13442.902753629209
  0
LINE
  8
_0-5_画層2-1
  6
CONTINUOUS
 62
    7
 10
23344.525146368418
 20
-13442.902753629209
 11
23344.525146368418
 21
-13443.602753629209
  0
LINE
  8
_0-5_画層2-1
  6
CONTINUOUS
 62
    7
 10
23344.525146368418
 20
-13443.602753629209
 11
23344.525146368418
 21
-13444.202753629208
  0
LINE
  8
_0-5_画層2-1
  6
CONTINUOUS
 62
    7
 10
23344.525146368418
 20
-13444.202753629208
 11
23344.525146368418
 21
-13444.902753629214
  0
LINE
  8
_0-5_画層2-1
  6
CONTINUOUS
 62
    7
 10
23344.525146368418
 20
-13444.902753629214
 11
23344.525146368418
 21
-13445.602753629208
  0
LINE
  8
_0-5_画層2-1
  6
CONTINUOUS
 62
    7
 10
23344.525146368418
 20
-13445.602753629208
 11
23344.525146368418
 21
-13446.302753629208
  0
LINE
  8
_0-5_画層2-1
  6
CONTINUOUS
 62
    7
 10
23344.525146368418
 20
-13446.302753629208
 11
23344.525146368418
 21
-13447.002753629209
  0
LINE
  8
_0-5_画層2-1
  6
CONTINUOUS
 62
    7
 10
23344.525146368418
 20
-13447.002753629209
 11
23344.42514636842
 21
-13447.70275362921
  0
LINE
  8
_0-5_画層2-1
  6
CONTINUOUS
 62
    7
 10
23344.42514636842
 20
-13447.70275362921
 11
23344.325146368421
 21
-13448.302753629207
  0
LINE
  8
_0-5_画層2-1
  6
CONTINUOUS
 62
    7
 10
23344.325146368421
 20
-13448.302753629207
 11
23344.225146368419
 21
-13449.002753629213
  0
LINE
  8
_0-5_画層2-1
  6
CONTINUOUS
 62
    7
 10
23344.225146368419
 20
-13449.002753629213
 11
23344.12514636842
 21
-13449.702753629208
  0
LINE
  8
_0-5_画層2-1
  6
CONTINUOUS
 62
    7
 10
23344.12514636842
 20
-13449.702753629208
 11
23344.025146368418
 21
-13450.402753629214
  0
LINE
  8
_0-5_画層2-1
  6
CONTINUOUS
 62
    7
 10
23344.025146368418
 20
-13450.402753629214
 11
23343.92514636842
 21
-13451.002753629211
  0
LINE
  8
_0-5_画層2-1
  6
CONTINUOUS
 62
    7
 10
23343.92514636842
 20
-13451.002753629211
 11
23343.725146368419
 21
-13451.702753629206
  0
LINE
  8
_0-5_画層2-1
  6
CONTINUOUS
 62
    7
 10
23343.725146368419
 20
-13451.702753629206
 11
23343.525146368418
 21
-13452.402753629212
  0
LINE
  8
_0-5_画層2-1
  6
CONTINUOUS
 62
    7
 10
23343.525146368418
 20
-13452.402753629212
 11
23343.325146368421
 21
-13453.002753629209
  0
LINE
  8
_0-5_画層2-1
  6
CONTINUOUS
 62
    7
 10
23343.325146368421
 20
-13453.002753629209
 11
23343.12514636842
 21
-13453.70275362921
  0
LINE
  8
_0-5_画層2-1
  6
CONTINUOUS
 62
    7
 10
23343.12514636842
 20
-13453.70275362921
 11
23342.92514636842
 21
-13454.302753629207
  0
LINE
  8
_0-5_画層2-1
  6
CONTINUOUS
 62
    7
 10
23342.92514636842
 20
-13454.302753629207
 11
23342.725146368419
 21
-13455.002753629213
  0
LINE
  8
_0-5_画層2-1
  6
CONTINUOUS
 62
    7
 10
23342.725146368419
 20
-13455.002753629213
 11
23342.42514636842
 21
-13455.602753629211
  0
LINE
  8
_0-5_画層2-1
  6
CONTINUOUS
 62
    7
 10
23342.42514636842
 20
-13455.602753629211
 11
23342.225146368419
 21
-13456.202753629208
  0
LINE
  8
_0-5_画層2-1
  6
CONTINUOUS
 62
    7
 10
23342.225146368419
 20
-13456.202753629208
 11
23341.92514636842
 21
-13456.902753629214
  0
LINE
  8
_0-5_画層2-1
  6
CONTINUOUS
 62
    7
 10
23341.92514636842
 20
-13456.902753629214
 11
23341.62514636842
 21
-13457.502753629211
  0
LINE
  8
_0-5_画層2-1
  6
CONTINUOUS
 62
    7
 10
23341.62514636842
 20
-13457.502753629211
 11
23341.325146368421
 21
-13458.102753629208
  0
LINE
  8
_0-5_画層2-1
  6
CONTINUOUS
 62
    7
 10
23341.325146368421
 20
-13458.102753629208
 11
23340.92514636842
 21
-13458.702753629206
  0
LINE
  8
_0-5_画層2-1
  6
CONTINUOUS
 62
    7
 10
23340.92514636842
 20
-13458.702753629206
 11
23340.62514636842
 21
-13459.302753629208
  0
LINE
  8
_0-5_画層2-1
  6
CONTINUOUS
 62
    7
 10
23340.62514636842
 20
-13459.302753629208
 11
23340.225146368419
 21
-13459.902753629211
  0
LINE
  8
_0-5_画層2-1
  6
CONTINUOUS
 62
    7
 10
23340.225146368419
 20
-13459.902753629211
 11
23339.825146368421
 21
-13460.402753629211
  0
LINE
  8
_0-5_画層2-1
  6
CONTINUOUS
 62
    7
 10
23339.825146368421
 20
-13460.402753629211
 11
23339.525146368418
 21
-13461.002753629215
  0
LINE
  8
_0-5_画層2-1
  6
CONTINUOUS
 62
    7
 10
23339.525146368418
 20
-13461.002753629215
 11
23339.12514636842
 21
-13461.602753629211
  0
LINE
  8
_0-5_画層2-1
  6
CONTINUOUS
 62
    7
 10
23339.12514636842
 20
-13461.602753629211
 11
23338.62514636842
 21
-13462.102753629209
  0
LINE
  8
_0-5_画層2-1
  6
CONTINUOUS
 62
    7
 10
23338.62514636842
 20
-13462.102753629209
 11
23338.225146368419
 21
-13462.602753629209
  0
LINE
  8
_0-5_画層2-1
  6
CONTINUOUS
 62
    7
 10
23338.225146368419
 20
-13462.602753629209
 11
23337.825146368421
 21
-13463.202753629208
  0
LINE
  8
_0-5_画層2-1
  6
CONTINUOUS
 62
    7
 10
23337.825146368421
 20
-13463.202753629208
 11
23337.325146368421
 21
-13463.702753629206
  0
LINE
  8
_0-5_画層2-1
  6
CONTINUOUS
 62
    7
 10
23337.325146368421
 20
-13463.702753629206
 11
23336.92514636842
 21
-13464.202753629206
  0
LINE
  8
_0-5_画層2-1
  6
CONTINUOUS
 62
    7
 10
23336.92514636842
 20
-13464.202753629206
 11
23336.42514636842
 21
-13464.702753629206
  0
LINE
  8
_0-5_画層2-1
  6
CONTINUOUS
 62
    7
 10
22999.025146368414
 20
-13706.402753629214
 11
22998.525146368418
 21
-13706.802753629205
  0
LINE
  8
_0-5_画層2-1
  6
CONTINUOUS
 62
    7
 10
22998.525146368418
 20
-13706.802753629205
 11
22998.025146368418
 21
-13707.302753629205
  0
LINE
  8
_0-5_画層2-1
  6
CONTINUOUS
 62
    7
 10
22998.025146368418
 20
-13707.302753629205
 11
22997.525146368418
 21
-13707.802753629205
  0
LINE
  8
_0-5_画層2-1
  6
CONTINUOUS
 62
    7
 10
22997.525146368418
 20
-13707.802753629205
 11
22996.92514636842
 21
-13708.202753629206
  0
LINE
  8
_0-5_画層2-1
  6
CONTINUOUS
 62
    7
 10
22996.92514636842
 20
-13708.202753629206
 11
22996.42514636842
 21
-13708.602753629208
  0
LINE
  8
_0-5_画層2-1
  6
CONTINUOUS
 62
    7
 10
22996.42514636842
 20
-13708.602753629208
 11
22995.92514636842
 21
-13709.002753629209
  0
LINE
  8
_0-5_画層2-1
  6
CONTINUOUS
 62
    7
 10
22995.92514636842
 20
-13709.002753629209
 11
22995.325146368421
 21
-13709.402753629212
  0
LINE
  8
_0-5_画層2-1
  6
CONTINUOUS
 62
    7
 10
22995.325146368421
 20
-13709.402753629212
 11
22994.725146368419
 21
-13709.802753629208
  0
LINE
  8
_0-5_画層2-1
  6
CONTINUOUS
 62
    7
 10
22994.725146368419
 20
-13709.802753629208
 11
22994.225146368419
 21
-13710.20275362921
  0
LINE
  8
_0-5_画層2-1
  6
CONTINUOUS
 62
    7
 10
22994.225146368419
 20
-13710.20275362921
 11
22993.62514636842
 21
-13710.602753629211
  0
LINE
  8
_0-5_画層2-1
  6
CONTINUOUS
 62
    7
 10
22993.62514636842
 20
-13710.602753629211
 11
22993.025146368418
 21
-13710.902753629211
  0
LINE
  8
_0-5_画層2-1
  6
CONTINUOUS
 62
    7
 10
22993.025146368418
 20
-13710.902753629211
 11
22992.42514636842
 21
-13711.202753629208
  0
LINE
  8
_0-5_画層2-1
  6
CONTINUOUS
 62
    7
 10
22992.42514636842
 20
-13711.202753629208
 11
22991.825146368421
 21
-13711.602753629211
  0
LINE
  8
_0-5_画層2-1
  6
CONTINUOUS
 62
    7
 10
22991.825146368421
 20
-13711.602753629211
 11
22991.225146368419
 21
-13711.902753629216
  0
LINE
  8
_0-5_画層2-1
  6
CONTINUOUS
 62
    7
 10
22991.225146368419
 20
-13711.902753629216
 11
22990.525146368418
 21
-13712.102753629209
  0
LINE
  8
_0-5_画層2-1
  6
CONTINUOUS
 62
    7
 10
22990.525146368418
 20
-13712.102753629209
 11
22989.92514636842
 21
-13712.402753629214
  0
LINE
  8
_0-5_画層2-1
  6
CONTINUOUS
 62
    7
 10
22989.92514636842
 20
-13712.402753629214
 11
22989.325146368421
 21
-13712.702753629208
  0
LINE
  8
_0-5_画層2-1
  6
CONTINUOUS
 62
    7
 10
22989.325146368421
 20
-13712.702753629208
 11
22988.62514636842
 21
-13712.902753629214
  0
LINE
  8
_0-5_画層2-1
  6
CONTINUOUS
 62
    7
 10
22988.62514636842
 20
-13712.902753629214
 11
22988.025146368418
 21
-13713.102753629209
  0
LINE
  8
_0-5_画層2-1
  6
CONTINUOUS
 62
    7
 10
22988.025146368418
 20
-13713.102753629209
 11
22987.325146368421
 21
-13713.302753629205
  0
LINE
  8
_0-5_画層2-1
  6
CONTINUOUS
 62
    7
 10
22987.325146368421
 20
-13713.302753629205
 11
22986.725146368415
 21
-13713.502753629211
  0
LINE
  8
_0-5_画層2-1
  6
CONTINUOUS
 62
    7
 10
22986.725146368415
 20
-13713.502753629211
 11
22986.025146368418
 21
-13713.702753629206
  0
LINE
  8
_0-5_画層2-1
  6
CONTINUOUS
 62
    7
 10
22986.025146368418
 20
-13713.702753629206
 11
22985.325146368421
 21
-13713.902753629212
  0
LINE
  8
_0-5_画層2-1
  6
CONTINUOUS
 62
    7
 10
22985.325146368421
 20
-13713.902753629212
 11
22984.725146368419
 21
-13714.002753629211
  0
LINE
  8
_0-5_画層2-1
  6
CONTINUOUS
 62
    7
 10
22984.725146368419
 20
-13714.002753629211
 11
22984.025146368418
 21
-13714.102753629209
  0
LINE
  8
_0-5_画層2-1
  6
CONTINUOUS
 62
    7
 10
22984.025146368418
 20
-13714.102753629209
 11
22983.325146368421
 21
-13714.202753629206
  0
LINE
  8
_0-5_画層2-1
  6
CONTINUOUS
 62
    7
 10
22983.325146368421
 20
-13714.202753629206
 11
22982.62514636842
 21
-13714.302753629203
  0
LINE
  8
_0-5_画層2-1
  6
CONTINUOUS
 62
    7
 10
22982.62514636842
 20
-13714.302753629203
 11
22982.025146368422
 21
-13714.402753629212
  0
LINE
  8
_0-5_画層2-1
  6
CONTINUOUS
 62
    7
 10
22982.025146368422
 20
-13714.402753629212
 11
22981.325146368421
 21
-13714.502753629211
  0
LINE
  8
_0-5_画層2-1
  6
CONTINUOUS
 62
    7
 10
22981.325146368421
 20
-13714.502753629211
 11
22980.62514636842
 21
-13714.502753629211
  0
LINE
  8
_0-5_画層2-1
  6
CONTINUOUS
 62
    7
 10
22980.62514636842
 20
-13714.502753629211
 11
22979.92514636842
 21
-13714.502753629211
  0
LINE
  8
_0-5_画層2-1
  6
CONTINUOUS
 62
    7
 10
22979.92514636842
 20
-13714.502753629211
 11
22979.225146368419
 21
-13714.502753629211
  0
LINE
  8
_0-5_画層2-1
  6
CONTINUOUS
 62
    7
 10
22979.225146368419
 20
-13714.502753629211
 11
22978.525146368418
 21
-13714.502753629211
  0
LINE
  8
_0-5_画層2-1
  6
CONTINUOUS
 62
    7
 10
22978.525146368418
 20
-13714.502753629211
 11
22977.92514636842
 21
-13714.502753629211
  0
LINE
  8
_0-5_画層2-1
  6
CONTINUOUS
 62
    7
 10
22977.92514636842
 20
-13714.502753629211
 11
22977.225146368419
 21
-13714.502753629211
  0
LINE
  8
_0-5_画層2-1
  6
CONTINUOUS
 62
    7
 10
22977.225146368419
 20
-13714.502753629211
 11
22976.525146368418
 21
-13714.402753629212
  0
LINE
  8
_0-5_画層2-1
  6
CONTINUOUS
 62
    7
 10
22976.525146368418
 20
-13714.402753629212
 11
22975.825146368417
 21
-13714.302753629203
  0
LINE
  8
_0-5_画層2-1
  6
CONTINUOUS
 62
    7
 10
22975.825146368417
 20
-13714.302753629203
 11
22975.125146368417
 21
-13714.202753629206
  0
LINE
  8
_0-5_画層2-1
  6
CONTINUOUS
 62
    7
 10
22975.125146368417
 20
-13714.202753629206
 11
22974.525146368418
 21
-13714.102753629209
  0
LINE
  8
_0-5_画層2-1
  6
CONTINUOUS
 62
    7
 10
22974.525146368418
 20
-13714.102753629209
 11
22973.825146368421
 21
-13714.002753629211
  0
LINE
  8
_0-5_画層2-1
  6
CONTINUOUS
 62
    7
 10
22973.825146368421
 20
-13714.002753629211
 11
22973.12514636842
 21
-13713.902753629212
  0
LINE
  8
_0-5_画層2-1
  6
CONTINUOUS
 62
    7
 10
22973.12514636842
 20
-13713.902753629212
 11
22972.42514636842
 21
-13713.702753629206
  0
LINE
  8
_0-5_画層2-1
  6
CONTINUOUS
 62
    7
 10
22972.42514636842
 20
-13713.702753629206
 11
22971.825146368421
 21
-13713.502753629211
  0
LINE
  8
_0-5_画層2-1
  6
CONTINUOUS
 62
    7
 10
22971.825146368421
 20
-13713.502753629211
 11
22971.125146368424
 21
-13713.302753629205
  0
LINE
  8
_0-5_画層2-1
  6
CONTINUOUS
 62
    7
 10
22971.125146368424
 20
-13713.302753629205
 11
22970.525146368418
 21
-13713.102753629209
  0
LINE
  8
_0-5_画層2-1
  6
CONTINUOUS
 62
    7
 10
22970.525146368418
 20
-13713.102753629209
 11
22969.825146368421
 21
-13712.902753629214
  0
LINE
  8
_0-5_画層2-1
  6
CONTINUOUS
 62
    7
 10
22969.825146368421
 20
-13712.902753629214
 11
22969.225146368419
 21
-13712.702753629208
  0
LINE
  8
_0-5_画層2-1
  6
CONTINUOUS
 62
    7
 10
22969.225146368419
 20
-13712.702753629208
 11
22968.62514636842
 21
-13712.402753629214
  0
LINE
  8
_0-5_画層2-1
  6
CONTINUOUS
 62
    7
 10
22968.62514636842
 20
-13712.402753629214
 11
22967.92514636842
 21
-13712.102753629209
  0
LINE
  8
_0-5_画層2-1
  6
CONTINUOUS
 62
    7
 10
22967.92514636842
 20
-13712.102753629209
 11
22967.325146368421
 21
-13711.902753629216
  0
LINE
  8
_0-5_画層2-1
  6
CONTINUOUS
 62
    7
 10
22967.325146368421
 20
-13711.902753629216
 11
22966.725146368419
 21
-13711.602753629211
  0
LINE
  8
_0-5_画層2-1
  6
CONTINUOUS
 62
    7
 10
22966.725146368419
 20
-13711.602753629211
 11
22966.12514636842
 21
-13711.202753629208
  0
LINE
  8
_0-5_画層2-1
  6
CONTINUOUS
 62
    7
 10
22966.12514636842
 20
-13711.202753629208
 11
22965.525146368418
 21
-13710.902753629211
  0
LINE
  8
_0-5_画層2-1
  6
CONTINUOUS
 62
    7
 10
22965.525146368418
 20
-13710.902753629211
 11
22964.92514636842
 21
-13710.602753629211
  0
LINE
  8
_0-5_画層2-1
  6
CONTINUOUS
 62
    7
 10
22964.92514636842
 20
-13710.602753629211
 11
22964.325146368421
 21
-13710.20275362921
  0
LINE
  8
_0-5_画層2-1
  6
CONTINUOUS
 62
    7
 10
22964.325146368421
 20
-13710.20275362921
 11
22963.725146368422
 21
-13709.802753629208
  0
LINE
  8
_0-5_画層2-1
  6
CONTINUOUS
 62
    7
 10
22963.725146368422
 20
-13709.802753629208
 11
22963.225146368419
 21
-13709.402753629212
  0
LINE
  8
_0-5_画層2-1
  6
CONTINUOUS
 62
    7
 10
22963.225146368419
 20
-13709.402753629212
 11
22962.625146368417
 21
-13709.002753629209
  0
LINE
  8
_0-5_画層2-1
  6
CONTINUOUS
 62
    7
 10
22962.625146368417
 20
-13709.002753629209
 11
22962.12514636842
 21
-13708.602753629208
  0
LINE
  8
_0-5_画層2-1
  6
CONTINUOUS
 62
    7
 10
22962.12514636842
 20
-13708.602753629208
 11
22961.525146368414
 21
-13708.202753629206
  0
LINE
  8
_0-5_画層2-1
  6
CONTINUOUS
 62
    7
 10
22961.525146368414
 20
-13708.202753629206
 11
22961.025146368418
 21
-13707.802753629205
  0
LINE
  8
_0-5_画層2-1
  6
CONTINUOUS
 62
    7
 10
22961.025146368418
 20
-13707.802753629205
 11
22960.525146368418
 21
-13707.302753629205
  0
LINE
  8
_0-5_画層2-1
  6
CONTINUOUS
 62
    7
 10
22960.525146368418
 20
-13707.302753629205
 11
22960.025146368418
 21
-13706.802753629205
  0
LINE
  8
_0-5_画層2-1
  6
CONTINUOUS
 62
    7
 10
22960.025146368418
 20
-13706.802753629205
 11
22959.525146368418
 21
-13706.402753629214
  0
LINE
  8
_0-5_画層2-1
  6
CONTINUOUS
 62
    7
 10
22959.525146368418
 20
-13706.402753629214
 11
22959.025146368418
 21
-13705.902753629214
  0
LINE
  8
_0-5_画層2-1
  6
CONTINUOUS
 62
    7
 10
22959.025146368418
 20
-13705.902753629214
 11
22958.625146368424
 21
-13705.402753629209
  0
LINE
  8
_0-5_画層2-1
  6
CONTINUOUS
 62
    7
 10
22958.625146368424
 20
-13705.402753629209
 11
22958.12514636842
 21
-13704.902753629211
  0
LINE
  8
_0-5_画層2-1
  6
CONTINUOUS
 62
    7
 10
22958.12514636842
 20
-13704.902753629211
 11
22957.725146368422
 21
-13704.302753629207
  0
LINE
  8
_0-5_画層2-1
  6
CONTINUOUS
 62
    7
 10
22957.725146368422
 20
-13704.302753629207
 11
22957.225146368419
 21
-13703.802753629208
  0
LINE
  8
_0-5_画層2-1
  6
CONTINUOUS
 62
    7
 10
22957.225146368419
 20
-13703.802753629208
 11
22956.825146368421
 21
-13703.302753629208
  0
LINE
  8
_0-5_画層2-1
  6
CONTINUOUS
 62
    7
 10
22956.825146368421
 20
-13703.302753629208
 11
22956.42514636842
 21
-13702.702753629204
  0
LINE
  8
_0-5_画層2-1
  6
CONTINUOUS
 62
    7
 10
22956.42514636842
 20
-13702.702753629204
 11
22956.025146368418
 21
-13702.102753629208
  0
LINE
  8
_0-5_画層2-1
  6
CONTINUOUS
 62
    7
 10
22956.025146368418
 20
-13702.102753629208
 11
22955.725146368415
 21
-13701.602753629209
  0
LINE
  8
_0-5_画層2-1
  6
CONTINUOUS
 62
    7
 10
22955.725146368415
 20
-13701.602753629209
 11
22955.325146368421
 21
-13701.002753629211
  0
LINE
  8
_0-5_画層2-1
  6
CONTINUOUS
 62
    7
 10
22955.325146368421
 20
-13701.002753629211
 11
22954.92514636842
 21
-13700.402753629214
  0
LINE
  8
_0-5_画層2-1
  6
CONTINUOUS
 62
    7
 10
22954.92514636842
 20
-13700.402753629214
 11
22954.62514636842
 21
-13699.802753629207
  0
LINE
  8
_0-5_画層2-1
  6
CONTINUOUS
 62
    7
 10
22954.62514636842
 20
-13699.802753629207
 11
22954.325146368421
 21
-13699.202753629208
  0
LINE
  8
_0-5_画層2-1
  6
CONTINUOUS
 62
    7
 10
22954.325146368421
 20
-13699.202753629208
 11
22954.025146368418
 21
-13698.602753629211
  0
LINE
  8
_0-5_画層2-1
  6
CONTINUOUS
 62
    7
 10
22954.025146368418
 20
-13698.602753629211
 11
22953.725146368419
 21
-13697.902753629211
  0
LINE
  8
_0-5_画層2-1
  6
CONTINUOUS
 62
    7
 10
22953.725146368419
 20
-13697.902753629211
 11
22953.42514636842
 21
-13697.302753629208
  0
LINE
  8
_0-5_画層2-1
  6
CONTINUOUS
 62
    7
 10
22953.42514636842
 20
-13697.302753629208
 11
22953.225146368419
 21
-13696.702753629212
  0
LINE
  8
_0-5_画層2-1
  6
CONTINUOUS
 62
    7
 10
22953.225146368419
 20
-13696.702753629212
 11
22953.025146368418
 21
-13696.002753629211
  0
LINE
  8
_0-5_画層2-1
  6
CONTINUOUS
 62
    7
 10
22953.025146368418
 20
-13696.002753629211
 11
22952.725146368419
 21
-13695.402753629212
  0
LINE
  8
_0-5_画層2-1
  6
CONTINUOUS
 62
    7
 10
22952.725146368419
 20
-13695.402753629212
 11
22952.525146368418
 21
-13694.702753629206
  0
LINE
  8
_0-5_画層2-1
  6
CONTINUOUS
 62
    7
 10
22952.525146368418
 20
-13694.702753629206
 11
22952.325146368421
 21
-13694.102753629209
  0
LINE
  8
_0-5_画層2-1
  6
CONTINUOUS
 62
    7
 10
22952.325146368421
 20
-13694.102753629209
 11
22952.225146368419
 21
-13693.402753629214
  0
LINE
  8
_0-5_画層2-1
  6
CONTINUOUS
 62
    7
 10
22952.225146368419
 20
-13693.402753629214
 11
22952.025146368418
 21
-13692.702753629208
  0
LINE
  8
_0-5_画層2-1
  6
CONTINUOUS
 62
    7
 10
22952.025146368418
 20
-13692.702753629208
 11
22951.92514636842
 21
-13692.102753629211
  0
LINE
  8
_0-5_画層2-1
  6
CONTINUOUS
 62
    7
 10
22951.92514636842
 20
-13692.102753629211
 11
22951.725146368419
 21
-13691.402753629211
  0
LINE
  8
_0-5_画層2-1
  6
CONTINUOUS
 62
    7
 10
22951.725146368419
 20
-13691.402753629211
 11
22951.62514636842
 21
-13690.70275362921
  0
LINE
  8
_0-5_画層2-1
  6
CONTINUOUS
 62
    7
 10
22951.62514636842
 20
-13690.70275362921
 11
22951.525146368418
 21
-13690.002753629211
  0
LINE
  8
_0-5_画層2-1
  6
CONTINUOUS
 62
    7
 10
22951.525146368418
 20
-13690.002753629211
 11
22951.525146368418
 21
-13689.402753629212
  0
LINE
  8
_0-5_画層2-1
  6
CONTINUOUS
 62
    7
 10
22951.525146368418
 20
-13689.402753629212
 11
22951.42514636842
 21
-13688.702753629206
  0
LINE
  8
_0-5_画層2-1
  6
CONTINUOUS
 62
    7
 10
22951.42514636842
 20
-13688.702753629206
 11
22951.42514636842
 21
-13688.002753629211
  0
LINE
  8
_0-5_画層2-1
  6
CONTINUOUS
 62
    7
 10
22951.42514636842
 20
-13688.002753629211
 11
22951.325146368421
 21
-13687.302753629207
  0
LINE
  8
_0-5_画層2-1
  6
CONTINUOUS
 62
    7
 10
22951.325146368421
 20
-13687.302753629207
 11
22951.325146368421
 21
-13686.602753629211
  0
LINE
  8
_0-5_画層2-1
  6
CONTINUOUS
 62
    7
 10
22951.325146368421
 20
-13686.602753629211
 11
22951.325146368421
 21
-13685.902753629211
  0
LINE
  8
_0-5_画層2-1
  6
CONTINUOUS
 62
    7
 10
22951.325146368421
 20
-13685.902753629211
 11
22951.42514636842
 21
-13685.302753629207
  0
LINE
  8
_0-5_画層2-1
  6
CONTINUOUS
 62
    7
 10
22951.42514636842
 20
-13685.302753629207
 11
22951.42514636842
 21
-13684.602753629208
  0
LINE
  8
_0-5_画層2-1
  6
CONTINUOUS
 62
    7
 10
22951.42514636842
 20
-13684.602753629208
 11
22951.525146368418
 21
-13683.902753629212
  0
LINE
  8
_0-5_画層2-1
  6
CONTINUOUS
 62
    7
 10
22951.525146368418
 20
-13683.902753629212
 11
22951.525146368418
 21
-13683.202753629206
  0
LINE
  8
_0-5_画層2-1
  6
CONTINUOUS
 62
    7
 10
22951.525146368418
 20
-13683.202753629206
 11
22951.62514636842
 21
-13682.502753629211
  0
LINE
  8
_0-5_画層2-1
  6
CONTINUOUS
 62
    7
 10
22951.62514636842
 20
-13682.502753629211
 11
22951.725146368419
 21
-13681.902753629214
  0
LINE
  8
_0-5_画層2-1
  6
CONTINUOUS
 62
    7
 10
22951.725146368419
 20
-13681.902753629214
 11
22951.92514636842
 21
-13681.202753629208
  0
LINE
  8
_0-5_画層2-1
  6
CONTINUOUS
 62
    7
 10
22951.92514636842
 20
-13681.202753629208
 11
22952.025146368418
 21
-13680.502753629213
  0
LINE
  8
_0-5_画層2-1
  6
CONTINUOUS
 62
    7
 10
22952.025146368418
 20
-13680.502753629213
 11
22952.225146368419
 21
-13679.802753629207
  0
LINE
  8
_0-5_画層2-1
  6
CONTINUOUS
 62
    7
 10
22952.225146368419
 20
-13679.802753629207
 11
22952.325146368421
 21
-13679.20275362921
  0
LINE
  8
_0-5_画層2-1
  6
CONTINUOUS
 62
    7
 10
22952.325146368421
 20
-13679.20275362921
 11
22952.525146368418
 21
-13678.502753629209
  0
LINE
  8
_0-5_画層2-1
  6
CONTINUOUS
 62
    7
 10
22952.525146368418
 20
-13678.502753629209
 11
22952.725146368419
 21
-13677.902753629212
  0
LINE
  8
_0-5_画層2-1
  6
CONTINUOUS
 62
    7
 10
22952.725146368419
 20
-13677.902753629212
 11
22953.025146368418
 21
-13677.202753629206
  0
LINE
  8
_0-5_画層2-1
  6
CONTINUOUS
 62
    7
 10
22953.025146368418
 20
-13677.202753629206
 11
22953.225146368419
 21
-13676.602753629209
  0
LINE
  8
_0-5_画層2-1
  6
CONTINUOUS
 62
    7
 10
22953.225146368419
 20
-13676.602753629209
 11
22953.42514636842
 21
-13676.002753629211
  0
LINE
  8
_0-5_画層2-1
  6
CONTINUOUS
 62
    7
 10
22953.42514636842
 20
-13676.002753629211
 11
22953.725146368419
 21
-13675.302753629205
  0
LINE
  8
_0-5_画層2-1
  6
CONTINUOUS
 62
    7
 10
22953.725146368419
 20
-13675.302753629205
 11
22954.025146368418
 21
-13674.702753629208
  0
LINE
  8
_0-5_画層2-1
  6
CONTINUOUS
 62
    7
 10
22954.025146368418
 20
-13674.702753629208
 11
22954.325146368421
 21
-13674.102753629211
  0
LINE
  8
_0-5_画層2-1
  6
CONTINUOUS
 62
    7
 10
22954.325146368421
 20
-13674.102753629211
 11
22954.62514636842
 21
-13673.502753629215
  0
LINE
  8
_0-5_画層2-1
  6
CONTINUOUS
 62
    7
 10
22954.62514636842
 20
-13673.502753629215
 11
22954.92514636842
 21
-13672.902753629211
  0
LINE
  8
_0-5_画層2-1
  6
CONTINUOUS
 62
    7
 10
22954.92514636842
 20
-13672.902753629211
 11
22955.325146368421
 21
-13672.302753629208
  0
LINE
  8
_0-5_画層2-1
  6
CONTINUOUS
 62
    7
 10
22955.325146368421
 20
-13672.302753629208
 11
22955.725146368415
 21
-13671.702753629212
  0
LINE
  8
_0-5_画層2-1
  6
CONTINUOUS
 62
    7
 10
22955.725146368415
 20
-13671.702753629212
 11
22956.025146368418
 21
-13671.102753629208
  0
LINE
  8
_0-5_画層2-1
  6
CONTINUOUS
 62
    7
 10
22956.025146368418
 20
-13671.102753629208
 11
22956.42514636842
 21
-13670.602753629208
  0
LINE
  8
_0-5_画層2-1
  6
CONTINUOUS
 62
    7
 10
22956.42514636842
 20
-13670.602753629208
 11
22956.825146368421
 21
-13670.002753629211
  0
LINE
  8
_0-5_画層2-1
  6
CONTINUOUS
 62
    7
 10
22956.825146368421
 20
-13670.002753629211
 11
22957.225146368419
 21
-13669.502753629211
  0
LINE
  8
_0-5_画層2-1
  6
CONTINUOUS
 62
    7
 10
22957.225146368419
 20
-13669.502753629211
 11
22957.725146368422
 21
-13668.902753629214
  0
LINE
  8
_0-5_画層2-1
  6
CONTINUOUS
 62
    7
 10
22957.725146368422
 20
-13668.902753629214
 11
22958.12514636842
 21
-13668.402753629214
  0
LINE
  8
_0-5_画層2-1
  6
CONTINUOUS
 62
    7
 10
22958.12514636842
 20
-13668.402753629214
 11
22958.625146368424
 21
-13667.902753629209
  0
LINE
  8
_0-5_画層2-1
  6
CONTINUOUS
 62
    7
 10
22958.625146368424
 20
-13667.902753629209
 11
22959.025146368418
 21
-13667.402753629211
  0
LINE
  8
_0-5_画層2-1
  6
CONTINUOUS
 62
    7
 10
22959.025146368418
 20
-13667.402753629211
 11
22959.525146368418
 21
-13666.902753629211
  0
LINE
  8
_0-5_画層2-1
  6
CONTINUOUS
 62
    7
 10
23296.93062833928
 20
-13425.201579204253
 11
22959.521576823168
 21
-13666.899850792863
  0
LINE
  8
_0-5_画層2-1
  6
CONTINUOUS
 62
    7
 10
22998.988001819511
 20
-13706.366275789298
 11
23336.397053335768
 21
-13464.668004200741
  0
ARC
  8
_0-4_______
  6
CONTINUOUS
 62
    5
 10
23736.126179400078
 20
-13453.684424031628
 40
31.931087122852091
 50
350.84847459466891
 51
114.61969517056609
  0
LINE
  8
_0-4_______
  6
CONTINUOUS
 62
    5
 10
23055.48853704887
 20
-12872.451531641889
 11
25436.883885886069
 21
-12872.451531641889
  0
LINE
  8
_0-4_______
  6
CONTINUOUS
 62
    5
 10
20630.807496734069
 20
-12771.312457937313
 11
22233.413047880738
 21
-12771.312457937313
  0
LINE
  8
_0-4_______
  6
CONTINUOUS
 62
    5
 10
22233.413047880738
 20
-12771.312457937313
 11
22856.617747208678
 21
-13549.967990413688
  0
INSERT
  2
-192-_U225
  8
_0-4_______
 10
1418.4251463684177
 20
23716.897246370791
 41
1
 42
1
 50
0
  0
INSERT
  2
-193-_U226
  8
_0-4_______
 10
1418.4251463684177
 20
23716.897246370791
 41
1
 42
1
 50
0
  0
CIRCLE
  8
_0-4_______
  6
CONTINUOUS
 62
    5
 10
19382.055212567881
 20
-16150.013346245129
 40
740.69767441857402
  0
LINE
  8
_0-4_______
  6
CONTINUOUS
 62
    5
 10
19182.055212567881
 20
-15049.31567182656
 11
19032.847022990809
 21
-15496.800758168791
  0
LINE
  8
_0-4_______
  6
CONTINUOUS
 62
    5
 10
19582.055212567881
 20
-15049.31567182656
 11
19731.263402144948
 21
-15496.800758168791
  0
LINE
  8
_0-4_______
  6
CONTINUOUS
 62
    5
 10
19182.055212567881
 20
-15049.31567182656
 11
19582.055212567881
 21
-15049.315671826536
  0
INSERT
  2
-194-_U227
  8
_0-4_______
 10
1418.4251463684177
 20
23716.897246370791
 41
1
 42
1
 50
0
  0
INSERT
  2
-195-_U228
  8
_0-4_______
 10
1418.4251463684177
 20
23716.897246370791
 41
1
 42
1
 50
0
  0
INSERT
  2
-061-_D57
  8
_0-b_寸法20
 10
1418.4251463684177
 20
23716.897246370791
 41
1
 42
1
 50
0
  0
INSERT
  2
-063-_D58
  8
_0-b_寸法20
 10
1418.4251463684177
 20
23716.897246370791
 41
1
 42
1
 50
0
  0
LINE
  8
_1-4_通り芯
  6
DASHDOT
 62
    7
 10
8179.4453949812378
 20
-18325.526994518317
 11
8179.4453949812378
 21
-13144.316651773204
  0
LINE
  8
_1-3_画層1
  6
CONTINUOUS
 62
    7
 10
7438.7477205626137
 20
-17291.758776631497
 11
7438.7477205626137
 21
-14603.615378984892
  0
LINE
  8
_1-3_画層1
  6
DASHED
 62
    7
 10
7438.7477205626137
 20
-14603.615378984892
 11
7438.7477205626137
 21
-14045.475844101151
  0
LINE
  8
_1-3_画層1
  6
CONTINUOUS
 62
    7
 10
7396.8872554463251
 20
-14603.615378984892
 11
7396.8872554463251
 21
-14003.615378984892
  0
LINE
  8
_1-3_画層1
  6
CONTINUOUS
 62
    7
 10
8920.14306939981
 20
-17291.758776631519
 11
8920.14306939981
 21
-14603.615378984892
  0
LINE
  8
_1-3_画層1
  6
DASHED
 62
    7
 10
8920.14306939981
 20
-14603.615378984892
 11
8920.14306939981
 21
-14045.475844101151
  0
LINE
  8
_1-3_画層1
  6
CONTINUOUS
 62
    7
 10
8962.0035345160941
 20
-14603.615378984892
 11
8962.0035345160941
 21
-14003.615378984892
  0
LINE
  8
_1-3_画層1
  6
CONTINUOUS
 62
    7
 10
9380.6081856788442
 20
-14488.834685889919
 11
9380.6081856788951
 21
-14003.615378984892
  0
LINE
  8
_1-4_通り芯
  6
DASHDOT
 62
    7
 10
9241.0733019579802
 20
-14583.229396975497
 11
9241.0733019579802
 21
-14283.229396975497
  0
LINE
  8
_1-3_画層1
  6
DASHED
 62
    7
 10
8920.14306939981
 20
-14045.475844101151
 11
7438.7477205626137
 21
-14045.475844101151
  0
LINE
  8
_1-3_画層1
  6
CONTINUOUS
 62
    7
 10
8962.0035345160941
 20
-14003.615378984892
 11
7396.8872554463251
 21
-14003.615378984892
  0
LINE
  8
_1-3_画層1
  6
CONTINUOUS
 62
    7
 10
9636.0013821757238
 20
-13352.452588287195
 11
7396.8872554463251
 21
-13352.452588287195
  0
LINE
  8
_1-3_画層1
  6
CONTINUOUS
 62
    7
 10
8962.0035345160941
 20
-14603.615378984892
 11
7396.8872554463251
 21
-14603.615378984892
  0
ARC
  8
_1-3_画層1
  6
CONTINUOUS
 62
    7
 10
8549.7942321904993
 20
-17971.624684763163
 40
774.19371882103735
 50
61.421188263316964
 51
118.57881173668301
  0
ARC
  8
_1-3_画層1
  6
CONTINUOUS
 62
    7
 10
8549.7942321904993
 20
-16611.892868499883
 40
774.19371882103735
 50
241.42118826331691
 51
298.57881173668301
  0
ARC
  8
_1-3_画層1
  6
CONTINUOUS
 62
    7
 10
7809.0965577719262
 20
-16611.892868499883
 40
774.19371882103735
 50
241.42118826331691
 51
298.57881173668301
  0
LINE
  8
_1-4_通り芯
  6
DASHDOT
 62
    7
 10
10037.197612418073
 20
-13678.033983636054
 11
7092.9090422446025
 21
-13678.033983636054
  0
ARC
  8
_1-3_画層1
  6
CONTINUOUS
 62
    7
 10
7594.263020134269
 20
-13678.033983636054
 40
287.79069767419873
 50
90
 51
180
  0
CIRCLE
  8
_1-3_画層1
  6
CONTINUOUS
 62
    7
 10
7594.263020134269
 20
-13678.033983636054
 40
241.2790697672219
  0
LINE
  8
_1-4_通り芯
  6
DASHDOT
 62
    7
 10
7594.263020134269
 20
-14114.487275945561
 11
7594.263020134269
 21
-13002.931971897418
  0
LINE
  8
_1-3_画層1
  6
CONTINUOUS
 62
    7
 10
7396.8872554463251
 20
-14003.615378984892
 11
7352.9839503669873
 21
-13950.594212311245
  0
LINE
  8
_1-3_画層1
  6
CONTINUOUS
 62
    7
 10
7306.4723224599647
 20
-13894.423024946962
 11
7233.6072390255222
 21
-13806.425282487748
  0
LINE
  8
_1-3_画層1
  6
CONTINUOUS
 62
    7
 10
8962.0035345160941
 20
-14572.764280696436
 11
9296.6785908723032
 21
-14572.764280696436
  0
LINE
  8
_1-4_通り芯
  6
DASHDOT
 62
    7
 10
9086.7457747763838
 20
-14433.229396975497
 11
9395.4008291395221
 21
-14433.229396975497
  0
LINE
  8
_1-3_画層1
  6
CONTINUOUS
 62
    7
 10
9296.6785908723032
 20
-14572.764280696436
 11
9315.3880276850905
 21
-14554.054843883649
  0
LINE
  8
_1-3_画層1
  6
CONTINUOUS
 62
    7
 10
9354.8544526814931
 20
-14514.588418887302
 11
9380.6081856788442
 21
-14488.834685889919
  0
LINE
  8
_1-4_通り芯
  6
DASHDOT
 62
    7
 10
9241.0733019579802
 20
-14583.229396975497
 11
9241.0733019579802
 21
-14283.229396975497
  0
ARC
  8
_1-3_画層1
  6
CONTINUOUS
 62
    7
 10
9241.0733019579802
 20
-14433.229396975497
 40
46.511627906976742
 50
344.53183023476112
 51
270.00111694770521
  0
ARC
  8
_1-3_画層1
  6
CONTINUOUS
 62
    7
 10
9241.0733019579802
 20
-14433.229396975497
 40
93.023255813953483
 50
329.26774744517849
 51
294.29561111571962
  0
LINE
  8
_1-3_画層1
  6
CONTINUOUS
 62
    7
 10
7233.6072390256159
 20
-13549.642684784265
 11
7233.6072390255222
 21
-13806.425282487748
  0
LINE
  8
_1-3_画層1
  6
CONTINUOUS
 62
    7
 10
7396.8872554463251
 20
-13352.452588287195
 11
7233.6072390256159
 21
-13549.642684784369
  0
LINE
  8
_1-3_画層1
  6
CONTINUOUS
 62
    7
 10
9636.0013821756293
 20
-14003.615378984892
 11
9762.0519859138876
 21
-13851.38651926573
  0
LINE
  8
_1-3_画層1
  6
CONTINUOUS
 62
    7
 10
9795.6222928054704
 20
-13810.844313302499
 11
9799.2813985964367
 21
-13806.425282487748
  0
LINE
  8
_1-3_画層1
  6
CONTINUOUS
 62
    7
 10
8962.0035345160941
 20
-14003.615378984892
 11
9636.0013821757238
 21
-14003.615378984892
  0
LINE
  8
_1-3_画層1
  6
CONTINUOUS
 62
    7
 10
9799.2813985963858
 20
-13549.642684784334
 11
9799.2813985964367
 21
-13806.425282487748
  0
LINE
  8
_1-3_画層1
  6
CONTINUOUS
 62
    7
 10
9636.0013821756293
 20
-13352.452588287195
 11
9799.2813985963858
 21
-13549.642684784369
  0
LINE
  8
_1-3_画層1
  6
CONTINUOUS
 62
    7
 10
8729.4453949812378
 20
-14003.615378984892
 11
8729.4453949811359
 21
-13436.754913868823
  0
LINE
  8
_1-3_画層1
  6
CONTINUOUS
 62
    7
 10
8729.4453949811359
 20
-13390.230432936869
 11
8729.4453949811359
 21
-13352.452588287195
  0
CIRCLE
  8
_1-3_画層1
  6
CONTINUOUS
 62
    7
 10
9438.6256174877326
 20
-13678.033983636054
 40
241.2790697672219
  0
ARC
  8
_1-3_画層1
  6
CONTINUOUS
 62
    7
 10
9438.6370377828334
 20
-13677.992983550945
 40
287.76255061410262
 50
25.833857949620601
 51
90.002273870193605
  0
LINE
  8
_1-4_通り芯
  6
DASHDOT
 62
    7
 10
9438.6256174877326
 20
-14114.487275945561
 11
9438.6256174877326
 21
-13002.931971897418
  0
LINE
  8
_0-5_画層2-1
  6
CONTINUOUS
 62
    7
 10
10040.575680409558
 20
-15452.67830650418
 11
9957.5128240742997
 21
-15142.683506439289
  0
LINE
  8
_0-5_画層2-1
  6
CONTINUOUS
 62
    7
 10
9943.0671099290867
 20
-15088.771367297682
 11
9860.0042535938264
 21
-14778.776567232768
  0
LINE
  8
_0-5_画層2-1
  6
CONTINUOUS
 62
    7
 10
9860.0042535938264
 20
-14778.776567232768
 11
9980.3239656158039
 21
-14746.536997562902
  0
LINE
  8
_0-5_画層2-1
  6
CONTINUOUS
 62
    7
 10
10036.137919104056
 20
-14731.581693799337
 11
10084.638166684243
 21
-14718.586091627498
  0
LINE
  8
_0-5_画層2-1
  6
CONTINUOUS
 62
    7
 10
10040.575680409558
 20
-15452.67830650418
 11
10099.50728806117
 21
-15436.887629825304
  0
LINE
  8
_0-5_画層2-1
  6
CONTINUOUS
 62
    7
 10
10155.321241549371
 20
-15421.932326061733
 11
10265.209593500018
 21
-15392.487830899001
  0
LINE
  8
_0-5_画層2-1
  6
CONTINUOUS
 62
    7
 10
10265.209593500018
 20
-15392.487830899001
 11
10340.447507663026
 21
-15068.467409085219
  0
LINE
  8
_1-6_画層1-1
  6
CONTINUOUS
 62
  150
 10
10353.407571779178
 20
-15012.653455596972
 11
10354.63101056451
 21
-15007.384580779019
  0
LINE
  8
_0-5_画層2-1
  6
CONTINUOUS
 62
    7
 10
10354.63101056451
 20
-15007.384580779019
 11
10084.638166684243
 21
-14718.586091627498
  0
LINE
  8
_1-4_通り芯
  6
DASHDOT
 62
    7
 10
10198.86272437626
 20
-14921.30527697143
 11
10262.771369525319
 21
-15159.815587710615
  0
LINE
  8
_1-4_通り芯
  6
DASHDOT
 62
    7
 10
10043.023095607183
 20
-15090.87966994698
 11
10274.845293916522
 21
-15028.763099122398
  0
ARC
  8
_1-3_画層1
  6
CONTINUOUS
 62
    7
 10
10230.81704695086
 20
-15040.560432340988
 40
37.20930232558139
 50
48.59037789072049
 51
311.4096221092795
  0
ARC
  8
_1-3_画層1
  6
CONTINUOUS
 62
    7
 10
10230.81704695086
 20
-15040.560432340988
 40
74.418604651162781
 50
22.02431283702375
 51
337.97568716297633
  0
LINE
  8
_1-4_通り芯
  6
DASHDOT
 62
    7
 10
10012.085160148788
 20
-15334.544993844162
 11
10243.907358458171
 21
-15272.428423019483
  0
LINE
  8
_1-4_通り芯
  6
DASHDOT
 62
    7
 10
10096.041936728994
 20
-15184.231553062204
 11
10159.950581878104
 21
-15422.741863801428
  0
LINE
  8
_1-4_通り芯
  6
DASHDOT
 62
    7
 10
10012.085160148788
 20
-15334.544993844162
 11
10243.907358458171
 21
-15272.428423019483
  0
ARC
  8
_1-3_画層1
  6
CONTINUOUS
 62
    7
 10
10127.996259303502
 20
-15303.486708431819
 40
37.20930232558139
 50
317.25307153958607
 51
220.03593893612779
  0
ARC
  8
_1-3_画層1
  6
CONTINUOUS
 62
    7
 10
10127.996259303502
 20
-15303.486708431819
 40
74.418604651162781
 50
291.54177141062752
 51
247.49149611513351
  0
LINE
  8
_1-4_通り芯
  6
DASHDOT
 62
    7
 10
9894.3973956110422
 20
-14895.328277159917
 11
10126.219593920425
 21
-14833.211706335271
  0
LINE
  8
_1-4_通り芯
  6
DASHDOT
 62
    7
 10
10042.262817340261
 20
-14983.525147117172
 11
9978.3541721911552
 21
-14745.014836377964
  0
LINE
  8
_1-4_通り芯
  6
DASHDOT
 62
    7
 10
9894.3973956110422
 20
-14895.328277159917
 11
10126.219593920425
 21
-14833.211706335271
  0
ARC
  8
_1-3_画層1
  6
CONTINUOUS
 62
    7
 10
10010.308494765712
 20
-14864.269991747562
 40
37.20930232558139
 50
143.69089760978019
 51
46.039222191127124
  0
ARC
  8
_1-3_画層1
  6
CONTINUOUS
 62
    7
 10
10010.308494765712
 20
-14864.269991747562
 40
74.418604651162781
 50
113.76066825980951
 51
69.691004947996021
  0
LINE
  8
_1-4_通り芯
  6
DASHDOT
 62
    7
 10
9853.829299222496
 20
-15141.573994901415
 11
10161.293839540676
 21
-15059.18911962176
  0
LINE
  8
_1-4_通り芯
  6
DASHDOT
 62
    7
 10
10013.428417811498
 20
-14970.992249664449
 11
10077.337062960607
 21
-15209.502560403644
  0
LINE
  8
_1-4_通り芯
  6
DASHDOT
 62
    7
 10
9929.4716412312901
 20
-15121.305690446405
 11
10161.293839540676
 21
-15059.18911962176
  0
ARC
  8
_1-3_画層1
  6
CONTINUOUS
 62
    7
 10
10045.382740386007
 20
-15090.247405034062
 40
37.20930232558139
 50
242.11313313455969
 51
147.88686686503411
  0
ARC
  8
_1-3_画層1
  6
CONTINUOUS
 62
    7
 10
10045.382740386007
 20
-15090.247405034062
 40
74.418604651162781
 50
217.02431283691587
 51
172.97568716308939
  0
LINE
  8
_0-5_画層2-1
  6
CONTINUOUS
 62
    7
 10
9888.008225865955
 20
-15161.307207399499
 11
10021.653181173831
 21
-15125.497149552262
  0
LINE
  8
_0-5_画層2-1
  6
CONTINUOUS
 62
    7
 10
10008.230285177444
 20
-15071.310947113625
 11
9873.5625117207455
 21
-15107.395068257887
  0
ARC
  8
_0-5_画層2-1
  6
CONTINUOUS
 62
    7
 10
9880.7853687933748
 20
-15134.351137828673
 40
27.906976744186053
 50
105.0000000001688
 51
285.00000000016882
  0
ARC
  8
_0-5_画層2-1
  6
CONTINUOUS
 62
    7
 10
10015.166197333145
 20
-15098.343903343181
 40
27.906976744186053
 50
285.00000000016882
 51
105.00000000016881
  0
LINE
  8
_1-3_画層1
  6
CONTINUOUS
 62
    7
 10
9938.5803173870736
 20
-16467.806789960479
 11
9938.5803173870736
 21
-15147.756456316871
  0
LINE
  8
_1-3_画層1
  6
CONTINUOUS
 62
    7
 10
9892.0686894801038
 20
-16467.806789960479
 11
9892.0686894801038
 21
-15160.219209453204
  0
LINE
  8
_1-3_画層1
  6
CONTINUOUS
 62
    7
 10
9873.5625117206946
 20
-15107.395068257836
 11
9340.9931478512881
 21
-14574.825704388088
  0
LINE
  8
_1-3_画層1
  6
CONTINUOUS
 62
    7
 10
9925.4394917974205
 20
-15093.49467334057
 11
9375.6482200427636
 21
-14543.703401585502
  0
INSERT
  2
-001-A$C7FF65A6F
  8
_0-5_画層2-1
 10
9348.8461463860895
 20
-14587.512689623583
 41
4.6511627907007327
 42
4.651162790687521
 50
45.00000000006338
  0
LINE
  8
_0-5_画層2-1
  6
CONTINUOUS
 62
    7
 10
10036.137919104056
 20
-14842.853778473056
 11
10036.137919104056
 21
-14615.15420899019
  0
LINE
  8
_0-5_画層2-1
  6
CONTINUOUS
 62
    7
 10
9980.3239656157111
 20
-14615.15420899019
 11
9980.3239656158039
 21
-14842.853778472994
  0
ARC
  8
_0-5_画層2-1
  6
CONTINUOUS
 62
    7
 10
10008.230942359833
 20
-14842.853778472994
 40
27.906976744186053
 50
180
 51
0
  0
ARC
  8
_0-5_画層2-1
  6
CONTINUOUS
 62
    7
 10
10008.230942359833
 20
-14615.15420899019
 40
27.906976744186053
 50
0
 51
180
  0
ARC
  8
_1-3_画層1
  6
CONTINUOUS
 62
    7
 10
10009.258927096213
 20
-14612.049291601761
 40
84.483222699792549
 50
290.10286385682258
 51
19.828250094198033
  0
ARC
  8
_1-3_画層1
  6
CONTINUOUS
 62
    7
 10
10009.258927096213
 20
-14612.049291601761
 40
38.123423136385973
 50
206.64541545198099
 51
221.71412616953523
  0
ARC
  8
_1-3_画層1
  6
CONTINUOUS
 62
    7
 10
10009.890680630371
 20
-14611.810490117432
 40
84.483222699792549
 50
201.5847196768392
 51
251.06050422809443
  0
LINE
  8
_1-3_画層1
  6
CONTINUOUS
 62
    7
 10
9975.2909844107999
 20
-14629.357505298038
 11
9970.7141575711794
 21
-14412.797277893935
  0
ARC
  8
_1-3_画層1
  6
CONTINUOUS
 62
    7
 10
10009.258927096213
 20
-14612.049291601761
 40
38.123423136385973
 50
316.29093509320882
 51
15.427099938034809
  0
LINE
  8
_1-3_画層1
  6
CONTINUOUS
 62
    7
 10
9931.331875293281
 20
-14642.889888788774
 11
9926.3291981172442
 21
-14416.779030495603
  0
LINE
  8
_1-3_画層1
  6
CONTINUOUS
 62
    7
 10
9970.7141575711794
 20
-14412.797277893935
 11
9889.632736323234
 21
-14198.294949471443
  0
LINE
  8
_1-3_画層1
  6
CONTINUOUS
 62
    7
 10
9926.3291981172442
 20
-14416.779030495603
 11
9849.4798263519187
 21
-14213.47266353942
  0
LINE
  8
_1-3_画層1
  6
CONTINUOUS
 62
    7
 10
10088.733446824997
 20
-14583.392431487089
 11
9697.6410082668317
 21
-13552.596696486899
  0
LINE
  8
_1-3_画層1
  6
CONTINUOUS
 62
    7
 10
10046.008751586567
 20
-14601.908000187485
 11
9664.5403241469248
 21
-13593.655041647815
  0
LINE
  8
_1-3_画層1
  6
CONTINUOUS
 62
    7
 10
9889.632736323234
 20
-14198.294949471443
 11
9849.4798263519187
 21
-14213.47266353942
  0
LINE
  8
_1-3_画層1
  6
CONTINUOUS
 62
    7
 10
9972.3509198939209
 20
-14238.302828243139
 11
9864.3123086316118
 21
-14279.141192167583
  0
LINE
  8
_1-3_画層1
  6
CONTINUOUS
 62
    7
 10
10003.064558507736
 20
-14319.556300315729
 11
9895.0259472452381
 21
-14360.394664240186
  0
LINE
  8
_1-3_画層1
  6
CONTINUOUS
 62
    7
 10
9438.6256174877326
 20
-13436.754913868823
 11
7594.263020134269
 21
-13436.754913868823
  0
LINE
  8
_1-3_画層1
  6
CONTINUOUS
 62
    7
 10
9438.6370377828334
 20
-13390.230432936829
 11
7594.263020134269
 21
-13390.230432936829
  0
LINE
  8
_1-3_画層1
  6
CONTINUOUS
 62
    7
 10
7352.9839503669873
 20
-13678.033983636054
 11
7352.9839503669873
 21
-17064.563937041406
  0
LINE
  8
_1-3_画層1
  6
CONTINUOUS
 62
    7
 10
7306.4723224600102
 20
-13678.033983636054
 11
7306.4723224600102
 21
-17069.05792276359
  0
ARC
  8
_1-3_画層1
  6
CONTINUOUS
 62
    7
 10
10128.336615852924
 20
-15546.341566068031
 40
84.483222699792549
 50
109.95263646312971
 51
179.12176520889329
  0
ARC
  8
_1-3_画層1
  6
CONTINUOUS
 62
    7
 10
10128.336615852924
 20
-15546.341566068031
 40
38.123423136385973
 50
6.2944289541568672
 51
44.94195781323738
  0
ARC
  8
_1-3_画層1
  6
CONTINUOUS
 62
    7
 10
10127.661235458778
 20
-15546.341566068031
 40
84.483222699792549
 50
0.8782347919403205
 51
70.888815349622391
  0
LINE
  8
_1-3_画層1
  6
CONTINUOUS
 62
    7
 10
10166.230216528958
 20
-15542.161802985287
 11
10093.939878153935
 21
-15746.351387476978
  0
ARC
  8
_1-3_画層1
  6
CONTINUOUS
 62
    7
 10
10128.336615852924
 20
-15546.341566068031
 40
38.123423136385973
 50
139.1312416209654
 51
174.72061505331632
  0
LINE
  8
_1-3_画層1
  6
CONTINUOUS
 62
    7
 10
10212.134533673554
 20
-15545.046650442748
 11
10136.865618491458
 21
-15758.320505906391
  0
LINE
  8
_1-3_画層1
  6
CONTINUOUS
 62
    7
 10
10093.939878153935
 20
-15746.351387476978
 11
10093.939878154277
 21
-15975.666554376687
  0
LINE
  8
_1-3_画層1
  6
CONTINUOUS
 62
    7
 10
10136.865618491458
 20
-15758.320505906391
 11
10136.865618491553
 21
-15975.666554376687
  0
LINE
  8
_1-3_画層1
  6
CONTINUOUS
 62
    7
 10
10043.863317638295
 20
-15545.046650442948
 11
10043.863317639023
 21
-16535.908155654623
  0
LINE
  8
_1-3_画層1
  6
CONTINUOUS
 62
    7
 10
10090.374917282345
 20
-15542.833741489392
 11
10090.37491728225
 21
-16538.571103678289
  0
LINE
  8
_1-3_画層1
  6
CONTINUOUS
 62
    7
 10
10093.939878154277
 20
-15975.666554376687
 11
10136.865618491553
 21
-15975.666554376687
  0
LINE
  8
_1-3_画層1
  6
CONTINUOUS
 62
    7
 10
10030.710971392769
 20
-15908.995469138825
 11
10146.210380445489
 21
-15908.995469138825
  0
LINE
  8
_1-3_画層1
  6
CONTINUOUS
 62
    7
 10
10030.710971392671
 20
-15822.130894537098
 11
10146.210380445533
 21
-15822.130894537098
  0
ARC
  8
_1-3_画層1
  6
CONTINUOUS
 62
    7
 10
10486.423593177729
 20
-15040.560432341039
 40
84.483222699792549
 50
90.878234791106678
 51
160.71145676585851
  0
ARC
  8
_1-3_画層1
  6
CONTINUOUS
 62
    7
 10
10486.423593177729
 20
-15040.560432341039
 40
38.123423136385973
 50
226.9179755399511
 51
263.70557104501449
  0
ARC
  8
_1-3_画層1
  6
CONTINUOUS
 62
    7
 10
10486.423593177633
 20
-15039.885051946845
 40
84.483222699792549
 50
199.77454752901301
 51
269.12176520805968
  0
LINE
  8
_1-3_画層1
  6
CONTINUOUS
 62
    7
 10
10482.243830094987
 20
-15078.454033017073
 11
10686.43341458658
 21
-15006.163694641878
  0
ARC
  8
_1-3_画層1
  6
CONTINUOUS
 62
    7
 10
10486.423593177729
 20
-15040.560432341039
 40
38.123423136385973
 50
95.279384946664521
 51
133.0820244600489
  0
LINE
  8
_1-3_画層1
  6
CONTINUOUS
 62
    7
 10
10485.12867755245
 20
-15124.358350161629
 11
10698.402533016031
 21
-15049.089434979431
  0
LINE
  8
_1-3_画層1
  6
CONTINUOUS
 62
    7
 10
10686.43341458658
 20
-15006.163694641878
 11
10915.748581486238
 21
-15006.163694642009
  0
LINE
  8
_1-3_画層1
  6
CONTINUOUS
 62
    7
 10
10698.402533016031
 20
-15049.089434979431
 11
10915.74858148629
 21
-15049.089434979283
  0
LINE
  8
_1-3_画層1
  6
CONTINUOUS
 62
    7
 10
10485.1286775525
 20
-14956.087134126408
 11
11475.99018276425
 21
-14956.087134126317
  0
LINE
  8
_1-3_画層1
  6
CONTINUOUS
 62
    7
 10
10482.915768599029
 20
-15002.598733770457
 11
11478.653130787941
 21
-15002.598733769593
  0
LINE
  8
_1-3_画層1
  6
CONTINUOUS
 62
    7
 10
10915.748581486238
 20
-15006.163694642009
 11
10915.74858148629
 21
-15049.089434979283
  0
LINE
  8
_1-3_画層1
  6
CONTINUOUS
 62
    7
 10
10849.077496248385
 20
-14942.93478788062
 11
10849.077496248436
 21
-15058.434196933291
  0
LINE
  8
_1-3_画層1
  6
CONTINUOUS
 62
    7
 10
10762.212921646651
 20
-14942.934787880551
 11
10762.212921646744
 21
-15058.434196933445
  0
LINE
  8
_0-5_画層2-1
  6
CONTINUOUS
 62
    7
 10
10230.817046950666
 20
-15068.467409085219
 11
10458.516616433511
 21
-15068.467409085219
  0
LINE
  8
_0-5_画層2-1
  6
CONTINUOUS
 62
    7
 10
10458.516616433511
 20
-15012.65345559691
 11
10230.817046950768
 21
-15012.653455596972
  0
ARC
  8
_0-5_画層2-1
  6
CONTINUOUS
 62
    7
 10
10230.817046950768
 20
-15040.560432341039
 40
27.906976744186053
 50
90
 51
270
  0
ARC
  8
_0-5_画層2-1
  6
CONTINUOUS
 62
    7
 10
10458.516616433511
 20
-15040.560432341039
 40
27.906976744186053
 50
270
 51
90
  0
LINE
  8
_0-5_画層2-1
  6
CONTINUOUS
 62
    7
 10
10155.321241549371
 20
-15534.668430358146
 11
10155.321241549371
 21
-15306.968860875293
  0
LINE
  8
_0-5_画層2-1
  6
CONTINUOUS
 62
    7
 10
10099.507288061077
 20
-15306.968860875293
 11
10099.50728806117
 21
-15534.668430358079
  0
ARC
  8
_0-5_画層2-1
  6
CONTINUOUS
 62
    7
 10
10127.414264805198
 20
-15534.668430358079
 40
27.906976744186053
 50
180
 51
0
  0
ARC
  8
_0-5_画層2-1
  6
CONTINUOUS
 62
    7
 10
10127.414264805198
 20
-15306.968860875293
 40
27.906976744186053
 50
0
 51
180
  0
LINE
  8
_1-3_画層1
  6
CONTINUOUS
 62
    7
 10
12697.326393880772
 20
-17475.869531455042
 11
12697.326393880772
 21
-14603.615378984892
  0
LINE
  8
_1-3_画層1
  6
DASHED
 62
    7
 10
12697.326393880772
 20
-14603.615378984892
 11
12697.326393880772
 21
-14048.61537898489
  0
LINE
  8
_1-3_画層1
  6
CONTINUOUS
 62
    7
 10
12652.32639388075
 20
-14603.615378984892
 11
12652.32639388075
 21
-14003.615378984892
  0
LINE
  8
_1-3_画層1
  6
CONTINUOUS
 62
    7
 10
14289.82639388077
 20
-17475.869531455042
 11
14289.82639388077
 21
-14603.615378984892
  0
LINE
  8
_1-3_画層1
  6
DASHED
 62
    7
 10
14289.82639388077
 20
-14603.615378984892
 11
14289.82639388077
 21
-14048.61537898489
  0
LINE
  8
_1-3_画層1
  6
CONTINUOUS
 62
    7
 10
14334.8263938808
 20
-14603.615378984892
 11
14334.8263938808
 21
-14003.615378984892
  0
LINE
  8
_1-3_画層1
  6
DASHED
 62
    7
 10
14289.82639388077
 20
-14048.61537898489
 11
12697.326393880772
 21
-14048.61537898489
  0
LINE
  8
_1-3_画層1
  6
CONTINUOUS
 62
    7
 10
14334.8263938808
 20
-14003.615378984892
 11
12652.32639388075
 21
-14003.615378984892
  0
LINE
  8
_1-3_画層1
  6
CONTINUOUS
 62
    7
 10
14334.8263938808
 20
-14603.615378984892
 11
12652.32639388075
 21
-14603.615378984892
  0
INSERT
  2
-065-_D59
  8
_0-b_寸法20
 10
1418.4251463684177
 20
23716.897246370791
 41
1
 42
1
 50
0
  0
ARC
  8
_1-3_画層1
  6
CONTINUOUS
 62
    7
 10
13891.701393880772
 20
-18206.725382696532
 40
832.25824773261525
 50
61.421188263316964
 51
118.57881173668301
  0
ARC
  8
_1-3_画層1
  6
CONTINUOUS
 62
    7
 10
13891.701393880772
 20
-16745.013680213531
 40
832.25824773261525
 50
241.42118826331691
 51
298.57881173668301
  0
ARC
  8
_1-3_画層1
  6
CONTINUOUS
 62
    7
 10
13095.451393880774
 20
-16745.01368021348
 40
832.25824773261525
 50
241.42118826331691
 51
298.57881173668301
  0
LINE
  8
_1-6_画層1-1
  6
CONTINUOUS
 62
  150
 10
13340.45139388077
 20
-14003.615378984892
 11
13295.451393880774
 21
-14003.615378984892
  0
LINE
  8
_0-5_画層2-1
  6
CONTINUOUS
 62
    7
 10
13624.82639388077
 20
-13436.754913868823
 11
13624.82639388077
 21
-13919.313053403266
  0
LINE
  8
_0-5_画層2-1
  6
CONTINUOUS
 62
    7
 10
13362.32639388077
 20
-13436.754913868823
 11
13362.32639388077
 21
-13919.313053403266
  0
ARC
  8
_0-5_画層2-1
  6
CONTINUOUS
 62
    7
 10
13493.57639388077
 20
-13259.604438761948
 40
220.47415569765309
 50
233.46541744099531
 51
306.53458255900472
  0
ARC
  8
_0-5_画層2-1
  6
CONTINUOUS
 62
    7
 10
13493.57639388077
 20
-14096.463528510145
 40
220.47415569763001
 50
53.465417440995253
 51
126.53458255900469
  0
LINE
  8
_0-5_画層2-1
  6
CONTINUOUS
 62
    7
 10
13295.451393880774
 20
-14003.615378984892
 11
13340.45139388077
 21
-14003.615378984892
  0
LINE
  8
_0-5_画層2-1
  6
CONTINUOUS
 62
    7
 10
13340.45139388077
 20
-14003.615378984892
 11
13340.45139388077
 21
-13352.452588287195
  0
LINE
  8
_0-5_画層2-1
  6
CONTINUOUS
 62
    7
 10
13340.45139388077
 20
-13352.452588287195
 11
13295.451393880774
 21
-13352.452588287195
  0
LINE
  8
_0-5_画層2-1
  6
CONTINUOUS
 62
    7
 10
13295.451393880774
 20
-13352.452588287195
 11
13295.451393880774
 21
-14003.615378984892
  0
LINE
  8
_0-5_画層2-1
  6
CONTINUOUS
 62
    7
 10
13646.70139388077
 20
-14003.615378984892
 11
13691.701393880772
 21
-14003.615378984892
  0
LINE
  8
_0-5_画層2-1
  6
CONTINUOUS
 62
    7
 10
13691.701393880772
 20
-14003.615378984892
 11
13691.701393880772
 21
-13352.452588287195
  0
LINE
  8
_0-5_画層2-1
  6
CONTINUOUS
 62
    7
 10
13691.701393880772
 20
-13352.452588287195
 11
13646.70139388077
 21
-13352.452588287195
  0
LINE
  8
_0-5_画層2-1
  6
CONTINUOUS
 62
    7
 10
13646.70139388077
 20
-13352.452588287195
 11
13646.70139388077
 21
-14003.615378984892
  0
LINE
  8
_0-0_0
  6
CONTINUOUS
 62
    7
 10
13691.701393880772
 20
-13551.556313447662
 11
13814.18656455885
 21
-13551.556313447662
  0
LINE
  8
_0-0_0
  6
CONTINUOUS
 62
    7
 10
13814.18656455885
 20
-13814.056046295911
 11
13691.701393880772
 21
-13814.056046295911
  0
LINE
  8
_1-9_2
  6
CONTINUOUS
 62
    7
 10
13824.345262914889
 20
-13569.144749280451
 11
13824.345262914889
 21
-13796.469697813331
  0
ARC
  8
_1-9_2
  6
CONTINUOUS
 62
    7
 10
13607.300446337729
 20
-13682.80652774472
 40
217.04470872398304
 50
342.40051200167102
 51
17.598969002266401
  0
LINE
  8
_0-0_0
  6
CONTINUOUS
 62
    7
 10
13691.701393880772
 20
-13814.056046295911
 11
13691.701393880772
 21
-13551.556313447662
  0
LINE
  8
_1-9_2
  6
CONTINUOUS
 62
    7
 10
13824.344785921399
 20
-13569.144053478987
 11
13814.18656455885
 21
-13551.556313447662
  0
ARC
  8
_1-9_2
  6
CONTINUOUS
 62
    7
 10
13705.69499242277
 20
-13569.144053478987
 40
118.64998946123939
 50
336.11693699576813
 51
359.9998320000247
  0
LINE
  8
_1-9_2
  6
CONTINUOUS
 62
    7
 10
13824.344785921399
 20
-13796.469002011856
 11
13814.18656455885
 21
-13814.056046295911
  0
ARC
  8
_1-9_2
  6
CONTINUOUS
 62
    7
 10
13705.69499242277
 20
-13796.469002011856
 40
118.65027049422569
 50
359.99966400004962
 51
23.882171996506077
  0
LINE
  8
_0-0_0
  6
CONTINUOUS
 62
    7
 10
13814.18602363675
 20
-13748.432463857449
 11
13691.701393880772
 21
-13748.431236536811
  0
LINE
  8
_0-0_0
  6
CONTINUOUS
 62
    7
 10
13814.185419648788
 20
-13617.182030116852
 11
13691.701393880772
 21
-13617.181767708957
  0
LINE
  8
_0-0_0
  6
CONTINUOUS
 62
    7
 10
13295.451393880774
 20
-13551.556313447662
 11
13172.9662232027
 21
-13551.556313447662
  0
LINE
  8
_0-0_0
  6
CONTINUOUS
 62
    7
 10
13172.9662232027
 20
-13814.056046295911
 11
13295.451393880774
 21
-13814.056046295911
  0
LINE
  8
_1-9_2
  6
CONTINUOUS
 62
    7
 10
13162.807524846699
 20
-13569.144749280451
 11
13162.807524846699
 21
-13796.469697813331
  0
ARC
  8
_1-9_2
  6
CONTINUOUS
 62
    7
 10
13379.852341423859
 20
-13682.80652774472
 40
217.04470872398304
 50
162.40103099773361
 51
197.59948799832901
  0
LINE
  8
_0-0_0
  6
CONTINUOUS
 62
    7
 10
13295.451393880774
 20
-13814.056046295911
 11
13295.451393880774
 21
-13551.556313447662
  0
LINE
  8
_1-9_2
  6
CONTINUOUS
 62
    7
 10
13162.808001840101
 20
-13569.144053478987
 11
13172.9662232027
 21
-13551.556313447662
  0
ARC
  8
_1-9_2
  6
CONTINUOUS
 62
    7
 10
13281.457795338771
 20
-13569.144053478987
 40
118.64998946123939
 50
180.00016799997516
 51
203.88306300423187
  0
LINE
  8
_1-9_2
  6
CONTINUOUS
 62
    7
 10
13162.808001840101
 20
-13796.469002011856
 11
13172.9662232027
 21
-13814.056046295911
  0
ARC
  8
_1-9_2
  6
CONTINUOUS
 62
    7
 10
13281.457795338771
 20
-13796.469002011856
 40
118.65027049422569
 50
156.11782800349391
 51
180.00033599995041
  0
LINE
  8
_0-0_0
  6
CONTINUOUS
 62
    7
 10
13172.966764124752
 20
-13748.432463857449
 11
13295.451393880774
 21
-13748.431236536811
  0
LINE
  8
_0-0_0
  6
CONTINUOUS
 62
    7
 10
13172.96736811281
 20
-13617.182030116852
 11
13295.451393880774
 21
-13617.181767708957
  0
LINE
  8
_0-a____
  6
CONTINUOUS
 62
    5
 10
13153.190559547884
 20
-13617.181767708957
 11
13134.303413641728
 21
-13748.431341401476
  0
LINE
  8
_0-a____
  6
CONTINUOUS
 62
    5
 10
13125.56514390727
 20
-13617.181767708957
 11
13109.926169197111
 21
-13725.859318774677
  0
LINE
  8
_1-9_2
  6
CONTINUOUS
 62
    7
 10
13115.375181461595
 20
-13617.181767708957
 11
13162.807524846699
 21
-13617.181767708957
  0
LINE
  8
_1-9_2
  6
CONTINUOUS
 62
    7
 10
13162.807524846699
 20
-13748.431236536811
 11
13115.375416402119
 21
-13748.431350350706
  0
LINE
  8
_1-9_2
  6
CONTINUOUS
 62
    7
 10
13109.926169197111
 20
-13730.842852003292
 11
13109.926169197111
 21
-13634.769507740282
  0
LINE
  8
_1-9_2
  6
CONTINUOUS
 62
    7
 10
13109.926169197111
 20
-13634.769507740282
 11
13115.375181461595
 21
-13617.181767708957
  0
LINE
  8
_1-9_2
  6
CONTINUOUS
 62
    7
 10
13109.926169197111
 20
-13730.842852003292
 11
13115.375429668669
 21
-13748.431393170791
  0
LINE
  8
_1-4_通り芯
  6
DASHDOT
 62
    7
 10
14188.39271386841
 20
-13682.806179871784
 11
13035.105842790827
 21
-13682.806179871784
  0
INSERT
  2
-067-_D60
  8
_0-b_寸法20
 10
1418.4251463684177
 20
23716.897246370791
 41
1
 42
1
 50
0
  0
INSERT
  2
-196-_U229
  8
_0-4_______
 10
1418.4251463684177
 20
23716.897246370791
 41
1
 42
1
 50
0
  0
INSERT
  2
-197-_U230
  8
_0-4_______
 10
1418.4251463684177
 20
23716.897246370791
 41
1
 42
1
 50
0
  0
INSERT
  2
-198-_U231
  8
_0-4_______
 10
1418.4251463684177
 20
23716.897246370791
 41
1
 42
1
 50
0
  0
INSERT
  2
-199-_U232
  8
_0-4_______
 10
1418.4251463684177
 20
23716.897246370791
 41
1
 42
1
 50
0
  0
INSERT
  2
-200-_U233
  8
_0-4_______
 10
1418.4251463684177
 20
23716.897246370791
 41
1
 42
1
 50
0
  0
INSERT
  2
-201-_U234
  8
_0-4_______
 10
1418.4251463684177
 20
23716.897246370791
 41
1
 42
1
 50
0
  0
LINE
  8
_1-4_通り芯
  6
DASHDOT
 62
    7
 10
13493.576393880801
 20
-18488.967023002122
 11
13493.576393880801
 21
-13057.612871938112
  0
INSERT
  2
-202-_U235
  8
_0-4_______
 10
1418.4251463684177
 20
23716.897246370791
 41
1
 42
1
 50
0
  0
INSERT
  2
-203-_U236
  8
_0-4_______
 10
1418.4251463684177
 20
23716.897246370791
 41
1
 42
1
 50
0
  0
LINE
  8
_0-0_0
  6
CONTINUOUS
 62
    7
 10
8179.4453949813314
 20
-14244.540266830239
 11
8248.7273567743523
 21
-14284.540226121397
  0
LINE
  8
_0-0_0
  6
CONTINUOUS
 62
    7
 10
8248.7273567743523
 20
-14284.540226121397
 11
8248.7273567743523
 21
-14364.540144703722
  0
LINE
  8
_0-0_0
  6
CONTINUOUS
 62
    7
 10
8248.7273567743523
 20
-14364.540144703722
 11
8179.4453949813314
 21
-14404.54010399489
  0
LINE
  8
_0-0_0
  6
CONTINUOUS
 62
    7
 10
8179.4453949813314
 20
-14404.54010399489
 11
8110.1634331883106
 21
-14364.540144703722
  0
LINE
  8
_0-0_0
  6
CONTINUOUS
 62
    7
 10
8110.1634331883106
 20
-14364.540144703722
 11
8110.1634331883106
 21
-14284.540226121397
  0
LINE
  8
_0-0_0
  6
CONTINUOUS
 62
    7
 10
8110.1634331883106
 20
-14284.540226121397
 11
8179.4453949813314
 21
-14244.540266830239
  0
CIRCLE
  8
_0-0_0
  6
CONTINUOUS
 62
    7
 10
8179.4453949812378
 20
-14324.545611543028
 40
40.005915051517128
  0
INSERT
  2
-204-_U237
  8
_0-4_______
 10
1418.4251463684177
 20
23716.897246370791
 41
1
 42
1
 50
0
  0
INSERT
  2
-205-_U238
  8
_0-4_______
 10
1418.4251463684177
 20
23716.897246370791
 41
1
 42
1
 50
0
  0
LINE
  8
_1-4_通り芯
  6
CENTER2
 62
    7
 10
12756.473768501697
 20
-14324.545717561296
 11
12524.464678474042
 21
-14324.545611543028
  0
LINE
  8
_1-4_通り芯
  6
CENTER2
 62
    7
 10
14230.679019259849
 20
-14324.545717561296
 11
14452.611120578807
 21
-14324.545611543028
  0
LINE
  8
_1-9_2
  6
CONTINUOUS
 62
    7
 10
14334.82618230727
 20
-14404.545848181335
 11
14392.634524020079
 21
-14404.545848181295
  0
LINE
  8
_1-9_2
  6
CONTINUOUS
 62
    7
 10
14334.82618230725
 20
-14244.546011015807
 11
14392.634524020059
 21
-14244.54601101578
  0
LINE
  8
_1-b_1
  6
CONTINUOUS
 62
    7
 10
14334.826605454247
 20
-14364.545571297378
 11
14334.82618230725
 21
-14284.545651788676
  0
LINE
  8
_1-b_1
  6
CONTINUOUS
 62
    7
 10
14334.82618230727
 20
-14404.545848181335
 11
14334.826605454247
 21
-14364.545571297378
  0
LINE
  8
_1-9_2
  6
CONTINUOUS
 62
    7
 10
14334.82618230725
 20
-14284.545651788676
 11
14334.82618230725
 21
-14244.546011015807
  0
ARC
  8
_1-9_2
  6
CONTINUOUS
 62
    7
 10
14266.532509104389
 20
-14324.545717561296
 40
132.29391769842769
 50
342.40103099865433
 51
17.599487998328939
  0
LINE
  8
_1-9_2
  6
CONTINUOUS
 62
    7
 10
14398.826201803002
 20
-14393.825701876494
 11
14398.826201802978
 21
-14255.265733246932
  0
ARC
  8
_1-9_2
  6
CONTINUOUS
 62
    7
 10
14326.506327671057
 20
-14393.825701876523
 40
72.319993576374515
 50
0.00016799997522
 51
23.883063003385175
  0
LINE
  8
_1-9_2
  6
CONTINUOUS
 62
    7
 10
14398.826201803002
 20
-14393.825701876494
 11
14392.634524020079
 21
-14404.545848181295
  0
ARC
  8
_1-9_2
  6
CONTINUOUS
 62
    7
 10
14326.506327671037
 20
-14255.265733246944
 40
72.320164872670944
 50
336.11782800256276
 51
0.0003359999504078
  0
LINE
  8
_1-9_2
  6
CONTINUOUS
 62
    7
 10
14398.826201802978
 20
-14255.265733246932
 11
14392.634524020059
 21
-14244.54601101578
  0
LINE
  8
_1-9_2
  6
CONTINUOUS
 62
    7
 10
14427.006303079417
 20
-14292.545495313556
 11
14427.006303079417
 21
-14356.545515735081
  0
LINE
  8
_1-9_2
  6
CONTINUOUS
 62
    7
 10
14419.006459554537
 20
-14364.545359260546
 11
14398.826201803002
 21
-14364.545359260546
  0
LINE
  8
_1-b_1
  6
CONTINUOUS
 62
    7
 10
14419.006459554537
 20
-14364.545359260546
 11
14427.006303079417
 21
-14356.545515735081
  0
LINE
  8
_1-9_2
  6
CONTINUOUS
 62
    7
 10
14398.826201803002
 20
-14284.545249650433
 11
14419.006459554537
 21
-14284.545228640809
  0
LINE
  8
_1-b_1
  6
CONTINUOUS
 62
    7
 10
14419.006459554537
 20
-14284.545651788676
 11
14427.006303079417
 21
-14292.545495313556
  0
LINE
  8
_1-9_2
  6
CONTINUOUS
 62
    7
 10
14392.634566018001
 20
-14364.545782408424
 11
14334.826224305189
 21
-14364.545782408424
  0
LINE
  8
_1-9_2
  6
CONTINUOUS
 62
    7
 10
14392.634566018001
 20
-14284.545651788676
 11
14334.826224305189
 21
-14284.545651788676
  0
LINE
  8
_0-0_0
  6
CONTINUOUS
 62
    7
 10
12577.669463888842
 20
-14364.545093298442
 11
12652.32639388075
 21
-14364.545253242279
  0
LINE
  8
_0-0_0
  6
CONTINUOUS
 62
    7
 10
12577.66909574372
 20
-14284.544828923203
 11
12652.32639388075
 21
-14284.545577004348
  0
ARC
  8
_1-9_2
  6
CONTINUOUS
 62
    7
 10
12643.79696238854
 20
-14255.265415190979
 40
72.320164872670944
 50
179.99966400004951
 51
203.88217199743721
  0
LINE
  8
_1-9_2
  6
CONTINUOUS
 62
    7
 10
12571.477088256017
 20
-14255.265415190979
 11
12577.66876603894
 21
-14244.545692960703
  0
ARC
  8
_1-9_2
  6
CONTINUOUS
 62
    7
 10
12643.79696238854
 20
-14393.825383820542
 40
72.319993576374515
 50
156.11693699661481
 51
179.99983200002481
  0
LINE
  8
_1-9_2
  6
CONTINUOUS
 62
    7
 10
12571.477088256017
 20
-14393.825383820542
 11
12577.66876603894
 21
-14404.545530125346
  0
ARC
  8
_1-9_2
  6
CONTINUOUS
 62
    7
 10
12703.77078095461
 20
-14324.545399506202
 40
132.29391769842769
 50
162.40051200167099
 51
197.59896900134561
  0
LINE
  8
_1-9_2
  6
CONTINUOUS
 62
    7
 10
12571.476797517098
 20
-14393.824959713016
 11
12571.476797517098
 21
-14255.264991083453
  0
LINE
  8
_0-0_0
  6
CONTINUOUS
 62
    7
 10
12577.66876603894
 20
-14244.545692960703
 11
12652.32639388075
 21
-14244.545692960703
  0
LINE
  8
_0-0_0
  6
CONTINUOUS
 62
    7
 10
12652.32639388075
 20
-14404.545530125346
 11
12577.66876603894
 21
-14404.545530125346
  0
INSERT
  2
-206-_U239
  8
_0-4_______
 10
1418.4251463684177
 20
23716.897246370791
 41
1
 42
1
 50
0
  0
INSERT
  2
-207-_U240
  8
_0-4_______
 10
1418.4251463684177
 20
23716.897246370791
 41
1
 42
1
 50
0
  0
INSERT
  2
-208-_U241
  8
_0-4_______
 10
1418.4251463684177
 20
23716.897246370791
 41
1
 42
1
 50
0
  0
INSERT
  2
-209-_U242
  8
_0-4_______
 10
1418.4251463684177
 20
23716.897246370791
 41
1
 42
1
 50
0
  0
CIRCLE
  8
_1-3_画層1
  6
CONTINUOUS
 62
    7
 10
13179.613990039412
 20
10788.793492975181
 40
596.28665021144843
  0
TEXT
  8
_1-3_画層1
 62
    7
 10
13755.78336344259
 20
11384.99489411968
 40
300
 41
0.75
 50
0
  1
A
  0
TEXT
  8
_1-3_画層1
 62
    7
 10
14504.608960613359
 20
300.69332506438116
 40
300
 41
0.75
 50
0
  1
B
  0
CIRCLE
  8
_1-3_画層1
  6
CONTINUOUS
 62
    7
 10
14011.51199593298
 20
1159.75689786367
 40
596.28665021144843
  0
ARC
  8
_1-6_画層1-1
  6
CONTINUOUS
 62
  150
 10
12879.485955612159
 20
2331.1528440988523
 40
225.15013732007668
 50
274.58145061942179
 51
265.41854938057821
  0
LINE
  8
_1-6_画層1-1
  6
CONTINUOUS
 62
  150
 10
12897.483075612026
 20
2331.1528440988523
 11
12897.483075612026
 21
2106.0387308008385
  0
LINE
  8
_1-6_画層1-1
  6
CONTINUOUS
 62
  150
 10
12861.488835612288
 20
2331.1528440988523
 11
12861.488835612288
 21
2106.0387308008385
  0
ARC
  8
_1-6_画層1-1
  6
CONTINUOUS
 62
  150
 10
12879.485955612159
 20
2331.1528440988523
 40
135.09008239204601
 50
277.65588309668306
 51
262.34411690331711
  0
CIRCLE
  8
_1-6_画層1-1
  6
CONTINUOUS
 62
  150
 10
12879.485955612159
 20
2106.0387308008385
 40
17.997119999999999
  0
LINE
  8
_1-6_画層1-1
  6
CONTINUOUS
 62
  150
 10
13097.070799117517
 20
2243.4548415324484
 11
13654.939955971209
 21
2243.4548415325112
  0
ARC
  8
_1-6_画層1-1
  6
CONTINUOUS
 62
  150
 10
12879.485955612159
 20
2331.1528440988523
 40
24.128736215660211
 50
318.2346624389674
 51
221.7653375610326
  0
LINE
  8
_1-6_画層1-1
  6
CONTINUOUS
 62
  150
 10
13119.43063576713
 20
2283.4548415324489
 11
13654.939955971202
 21
2283.4548415325203
  0
LINE
  8
_1-6_画層1-1
  6
CONTINUOUS
 62
  150
 10
13119.43063576713
 20
2363.4548415324502
 11
13654.939955971202
 21
2363.4548415325185
  0
LINE
  8
_1-6_画層1-1
  6
CONTINUOUS
 62
  150
 10
13097.070799117517
 20
2403.4548415324507
 11
13654.939955971202
 21
2403.4548415325107
  0
ARC
  8
_1-6_画層1-1
  6
CONTINUOUS
 62
  150
 10
46397.294956136451
 20
2375.055700046988
 40
225.15013732007668
 50
274.58145061942349
 51
265.41854938057656
  0
LINE
  8
_1-6_画層1-1
  6
CONTINUOUS
 62
  150
 10
46415.29207613632
 20
2375.055700046988
 11
46415.29207613632
 21
2149.9415867489688
  0
LINE
  8
_1-6_画層1-1
  6
CONTINUOUS
 62
  150
 10
46379.297836136582
 20
2375.055700046988
 11
46379.297836136582
 21
2149.9415867489688
  0
ARC
  8
_1-6_画層1-1
  6
CONTINUOUS
 62
  150
 10
46397.294956136451
 20
2375.055700046988
 40
135.09008239204601
 50
277.65588309668306
 51
262.34411690331711
  0
CIRCLE
  8
_1-6_画層1-1
  6
CONTINUOUS
 62
  150
 10
46397.294956136451
 20
2149.9415867489688
 40
17.997119999999999
  0
LINE
  8
_1-6_画層1-1
  6
CONTINUOUS
 62
  150
 10
46593.308151991456
 20
2263.1912004163837
 11
47154.939955971153
 21
2263.1912004164406
  0
ARC
  8
_1-6_画層1-1
  6
CONTINUOUS
 62
  150
 10
46397.294956136451
 20
2375.055700046988
 40
24.128736215660211
 50
318.23466243889419
 51
221.76533756110587
  0
LINE
  8
_1-6_画層1-1
  6
CONTINUOUS
 62
  150
 10
46620.13995597099
 20
2311.1912004163714
 11
47154.939955971153
 21
2311.191200416451
  0
LINE
  8
_1-6_画層1-1
  6
CONTINUOUS
 62
  150
 10
46620.13995597099
 20
2407.1912004163723
 11
47154.939955971153
 21
2407.1912004164515
  0
LINE
  8
_1-6_画層1-1
  6
CONTINUOUS
 62
  150
 10
46593.308151991456
 20
2455.191200416371
 11
47154.939955971153
 21
2455.1912004164392
  0
TEXT
  8
_0-0_0
 62
    7
 10
45253.611311052133
 20
-15919.563466879345
 40
130
 41
0.75
 50
0
  1
2
  0
INSERT
  2
-210-_U251
  8
_0-4_______
 10
1418.4251463684177
 20
23716.897246370791
 41
1
 42
1
 50
0
  0
TEXT
  8
_0-0_0
 62
    7
 10
46950.840322218392
 20
-16138.92181039322
 40
300
 41
0.75
 50
0
  1
・地表面粗度区分　　　・基礎　普通土質 [B] を選定
  0
TEXT
  8
_0-0_0
 62
    7
 10
42282.732783166626
 20
-15638.921810393254
 40
300
 41
0.75
 50
0
  1
・設計荷重。建築基準法・同施工令（平成12年6月）に基づく風圧力に依る、基準風速。
  0
TEXT
  8
_0-0_0
 62
    7
 10
41782.732783166721
 20
-15038.921810393236
 40
400
 41
0.75
 50
0
  1
設計条件
  0
TEXT
  8
_0-0_0
 62
    7
 10
42282.732783166721
 20
-16138.921810393236
 40
300
 41
0.75
 50
0
  1
・速度圧　q=0.6EVo （N/㎡）　
  0
TEXT
  8
_0-0_0
 62
    7
 10
42282.732783166772
 20
-16638.921810393236
 40
300
 41
0.75
 50
0
  1
・風速10m以上になったら矢止めネットを降ろすこと（構造計算は20m/Ｓにて行う）　
  0
LINE
  8
_0-3_画層1-2
  6
CONTINUOUS
 62
    3
 10
13808.16718594417
 20
9021.4594702448812
 11
13884.59210304437
 21
6923.4478720336401
  0
LINE
  8
_0-4_______
  6
CONTINUOUS
 62
    6
 10
13888.047698253398
 20
10629.852010423701
 11
13808.16718594417
 21
9021.4594702448812
  0
LINE
  8
_0-4_______
  6
CONTINUOUS
 62
    6
 10
46344.062034238559
 20
10507.26136212741
 11
46435.664024394559
 21
9021.4594702448812
  0
LINE
  8
_0-4_______
  6
CONTINUOUS
 62
    6
 10
46435.664024394559
 20
9021.4594702448812
 11
46378.578617614388
 21
6923.447872033722
  0
LINE
  8
_1-3_画層1
  6
CONTINUOUS
 62
    7
 10
46547.325146368421
 20
6923.4972463707891
 11
46547.225146368422
 21
6926.8972463707914
  0
LINE
  8
_1-3_画層1
  6
CONTINUOUS
 62
    7
 10
46547.225146368422
 20
6926.8972463707914
 11
46546.725146368422
 21
6930.2972463707929
  0
LINE
  8
_1-3_画層1
  6
CONTINUOUS
 62
    7
 10
46546.725146368422
 20
6930.2972463707929
 11
46546.025146368418
 21
6933.7972463707929
  0
LINE
  8
_1-3_画層1
  6
CONTINUOUS
 62
    7
 10
46546.025146368418
 20
6933.7972463707929
 11
46545.025146368411
 21
6937.1972463707889
  0
LINE
  8
_1-3_画層1
  6
CONTINUOUS
 62
    7
 10
46545.025146368411
 20
6937.1972463707889
 11
46543.725146368422
 21
6940.4972463707882
  0
LINE
  8
_1-3_画層1
  6
CONTINUOUS
 62
    7
 10
46543.725146368422
 20
6940.4972463707882
 11
46542.225146368422
 21
6943.797246370792
  0
LINE
  8
_1-3_画層1
  6
CONTINUOUS
 62
    7
 10
46542.225146368422
 20
6943.797246370792
 11
46540.325146368421
 21
6947.0972463707913
  0
LINE
  8
_1-3_画層1
  6
CONTINUOUS
 62
    7
 10
46540.325146368421
 20
6947.0972463707913
 11
46538.225146368422
 21
6950.297246370792
  0
LINE
  8
_1-3_画層1
  6
CONTINUOUS
 62
    7
 10
46538.225146368422
 20
6950.297246370792
 11
46535.825146368421
 21
6953.49724637079
  0
LINE
  8
_1-3_画層1
  6
CONTINUOUS
 62
    7
 10
46535.825146368421
 20
6953.49724637079
 11
46533.225146368422
 21
6956.5972463707913
  0
LINE
  8
_1-3_画層1
  6
CONTINUOUS
 62
    7
 10
46533.225146368422
 20
6956.5972463707913
 11
46530.325146368421
 21
6959.5972463707913
  0
LINE
  8
_1-3_画層1
  6
CONTINUOUS
 62
    7
 10
46530.325146368421
 20
6959.5972463707913
 11
46527.225146368422
 21
6962.4972463707873
  0
LINE
  8
_1-3_画層1
  6
CONTINUOUS
 62
    7
 10
46527.225146368422
 20
6962.4972463707873
 11
46523.825146368421
 21
6965.2972463707929
  0
LINE
  8
_1-3_画層1
  6
CONTINUOUS
 62
    7
 10
46523.825146368421
 20
6965.2972463707929
 11
46520.225146368422
 21
6967.9972463707882
  0
LINE
  8
_1-3_画層1
  6
CONTINUOUS
 62
    7
 10
46520.225146368422
 20
6967.9972463707882
 11
46516.42514636842
 21
6970.5972463707922
  0
LINE
  8
_1-3_画層1
  6
CONTINUOUS
 62
    7
 10
46516.42514636842
 20
6970.5972463707922
 11
46512.325146368421
 21
6973.0972463707903
  0
LINE
  8
_1-3_画層1
  6
CONTINUOUS
 62
    7
 10
46512.325146368421
 20
6973.0972463707903
 11
46508.125146368417
 21
6975.49724637079
  0
LINE
  8
_1-3_画層1
  6
CONTINUOUS
 62
    7
 10
46508.125146368417
 20
6975.49724637079
 11
46503.625146368417
 21
6977.6972463707889
  0
LINE
  8
_1-3_画層1
  6
CONTINUOUS
 62
    7
 10
46503.625146368417
 20
6977.6972463707889
 11
46499.025146368425
 21
6979.8972463707914
  0
LINE
  8
_1-3_画層1
  6
CONTINUOUS
 62
    7
 10
46499.025146368425
 20
6979.8972463707914
 11
46494.225146368422
 21
6981.797246370792
  0
LINE
  8
_1-3_画層1
  6
CONTINUOUS
 62
    7
 10
46494.225146368422
 20
6981.797246370792
 11
46489.325146368421
 21
6983.6972463707898
  0
LINE
  8
_1-3_画層1
  6
CONTINUOUS
 62
    7
 10
46489.325146368421
 20
6983.6972463707898
 11
46484.225146368422
 21
6985.3972463707923
  0
LINE
  8
_1-3_画層1
  6
CONTINUOUS
 62
    7
 10
46484.225146368422
 20
6985.3972463707923
 11
46478.92514636842
 21
6986.8972463707905
  0
LINE
  8
_1-3_画層1
  6
CONTINUOUS
 62
    7
 10
46478.92514636842
 20
6986.8972463707905
 11
46473.625146368417
 21
6988.297246370792
  0
LINE
  8
_1-3_画層1
  6
CONTINUOUS
 62
    7
 10
46473.625146368417
 20
6988.297246370792
 11
46468.125146368417
 21
6989.5972463707922
  0
LINE
  8
_1-3_画層1
  6
CONTINUOUS
 62
    7
 10
46468.125146368417
 20
6989.5972463707922
 11
46462.525146368418
 21
6990.6972463707889
  0
LINE
  8
_1-3_画層1
  6
CONTINUOUS
 62
    7
 10
46462.525146368418
 20
6990.6972463707889
 11
46456.92514636842
 21
6991.5972463707903
  0
LINE
  8
_1-3_画層1
  6
CONTINUOUS
 62
    7
 10
46456.92514636842
 20
6991.5972463707903
 11
46451.22514636843
 21
6992.2972463707911
  0
LINE
  8
_1-3_画層1
  6
CONTINUOUS
 62
    7
 10
46451.22514636843
 20
6992.2972463707911
 11
46445.42514636842
 21
6992.8972463707905
  0
LINE
  8
_1-3_画層1
  6
CONTINUOUS
 62
    7
 10
46445.42514636842
 20
6992.8972463707905
 11
46439.625146368417
 21
6993.2972463707929
  0
LINE
  8
_1-3_画層1
  6
CONTINUOUS
 62
    7
 10
46439.625146368417
 20
6993.2972463707929
 11
46433.725146368422
 21
6993.5972463707913
  0
LINE
  8
_1-3_画層1
  6
CONTINUOUS
 62
    7
 10
46433.725146368422
 20
6993.5972463707913
 11
46427.825146368421
 21
6993.6972463707889
  0
LINE
  8
_1-3_画層1
  6
CONTINUOUS
 62
    7
 10
46427.825146368421
 20
6993.6972463707889
 11
46422.025146368418
 21
6993.5972463707913
  0
LINE
  8
_1-3_画層1
  6
CONTINUOUS
 62
    7
 10
46422.025146368418
 20
6993.5972463707913
 11
46416.125146368417
 21
6993.2972463707929
  0
LINE
  8
_1-3_画層1
  6
CONTINUOUS
 62
    7
 10
46416.125146368417
 20
6993.2972463707929
 11
46410.325146368421
 21
6992.8972463707905
  0
LINE
  8
_1-3_画層1
  6
CONTINUOUS
 62
    7
 10
46410.325146368421
 20
6992.8972463707905
 11
46404.525146368418
 21
6992.2972463707911
  0
LINE
  8
_1-3_画層1
  6
CONTINUOUS
 62
    7
 10
46404.525146368418
 20
6992.2972463707911
 11
46398.825146368421
 21
6991.5972463707903
  0
LINE
  8
_1-3_画層1
  6
CONTINUOUS
 62
    7
 10
46398.825146368421
 20
6991.5972463707903
 11
46393.225146368422
 21
6990.6972463707889
  0
LINE
  8
_1-3_画層1
  6
CONTINUOUS
 62
    7
 10
46393.225146368422
 20
6990.6972463707889
 11
46387.625146368417
 21
6989.5972463707922
  0
LINE
  8
_1-3_画層1
  6
CONTINUOUS
 62
    7
 10
46387.625146368417
 20
6989.5972463707922
 11
46382.125146368417
 21
6988.297246370792
  0
LINE
  8
_1-3_画層1
  6
CONTINUOUS
 62
    7
 10
46382.125146368417
 20
6988.297246370792
 11
46376.825146368421
 21
6986.8972463707905
  0
LINE
  8
_1-3_画層1
  6
CONTINUOUS
 62
    7
 10
46376.825146368421
 20
6986.8972463707905
 11
46371.525146368418
 21
6985.3972463707923
  0
LINE
  8
_1-3_画層1
  6
CONTINUOUS
 62
    7
 10
46371.525146368418
 20
6985.3972463707923
 11
46366.42514636842
 21
6983.6972463707898
  0
LINE
  8
_1-3_画層1
  6
CONTINUOUS
 62
    7
 10
46366.42514636842
 20
6983.6972463707898
 11
46361.525146368425
 21
6981.797246370792
  0
LINE
  8
_1-3_画層1
  6
CONTINUOUS
 62
    7
 10
46361.525146368425
 20
6981.797246370792
 11
46356.725146368422
 21
6979.8972463707914
  0
LINE
  8
_1-3_画層1
  6
CONTINUOUS
 62
    7
 10
46356.725146368422
 20
6979.8972463707914
 11
46352.125146368417
 21
6977.6972463707889
  0
LINE
  8
_1-3_画層1
  6
CONTINUOUS
 62
    7
 10
46352.125146368417
 20
6977.6972463707889
 11
46347.625146368424
 21
6975.49724637079
  0
LINE
  8
_1-3_画層1
  6
CONTINUOUS
 62
    7
 10
46347.625146368424
 20
6975.49724637079
 11
46343.42514636842
 21
6973.0972463707903
  0
LINE
  8
_1-3_画層1
  6
CONTINUOUS
 62
    7
 10
46343.42514636842
 20
6973.0972463707903
 11
46339.325146368421
 21
6970.5972463707922
  0
LINE
  8
_1-3_画層1
  6
CONTINUOUS
 62
    7
 10
46339.325146368421
 20
6970.5972463707922
 11
46335.525146368418
 21
6967.9972463707882
  0
LINE
  8
_1-3_画層1
  6
CONTINUOUS
 62
    7
 10
46335.525146368418
 20
6967.9972463707882
 11
46331.92514636842
 21
6965.2972463707929
  0
LINE
  8
_1-3_画層1
  6
CONTINUOUS
 62
    7
 10
46331.92514636842
 20
6965.2972463707929
 11
46328.525146368418
 21
6962.4972463707873
  0
LINE
  8
_1-3_画層1
  6
CONTINUOUS
 62
    7
 10
46328.525146368418
 20
6962.4972463707873
 11
46325.42514636842
 21
6959.5972463707913
  0
LINE
  8
_1-3_画層1
  6
CONTINUOUS
 62
    7
 10
46325.42514636842
 20
6959.5972463707913
 11
46322.525146368418
 21
6956.5972463707913
  0
LINE
  8
_1-3_画層1
  6
CONTINUOUS
 62
    7
 10
46322.525146368418
 20
6956.5972463707913
 11
46319.92514636842
 21
6953.49724637079
  0
LINE
  8
_1-3_画層1
  6
CONTINUOUS
 62
    7
 10
46319.92514636842
 20
6953.49724637079
 11
46317.525146368418
 21
6950.297246370792
  0
LINE
  8
_1-3_画層1
  6
CONTINUOUS
 62
    7
 10
46317.525146368418
 20
6950.297246370792
 11
46315.42514636842
 21
6947.0972463707913
  0
LINE
  8
_1-3_画層1
  6
CONTINUOUS
 62
    7
 10
46315.42514636842
 20
6947.0972463707913
 11
46313.525146368418
 21
6943.797246370792
  0
LINE
  8
_1-3_画層1
  6
CONTINUOUS
 62
    7
 10
46313.525146368418
 20
6943.797246370792
 11
46312.025146368418
 21
6940.4972463707882
  0
LINE
  8
_1-3_画層1
  6
CONTINUOUS
 62
    7
 10
46312.025146368418
 20
6940.4972463707882
 11
46310.725146368422
 21
6937.1972463707889
  0
LINE
  8
_1-3_画層1
  6
CONTINUOUS
 62
    7
 10
46310.725146368422
 20
6937.1972463707889
 11
46309.725146368422
 21
6933.7972463707929
  0
LINE
  8
_1-3_画層1
  6
CONTINUOUS
 62
    7
 10
46309.725146368422
 20
6933.7972463707929
 11
46309.025146368418
 21
6930.2972463707929
  0
LINE
  8
_1-3_画層1
  6
CONTINUOUS
 62
    7
 10
46309.025146368418
 20
6930.2972463707929
 11
46308.525146368418
 21
6926.8972463707914
  0
LINE
  8
_1-3_画層1
  6
CONTINUOUS
 62
    7
 10
46308.525146368418
 20
6926.8972463707914
 11
46308.425146368412
 21
6923.4972463707891
  0
LINE
  8
_1-3_画層1
  6
CONTINUOUS
 62
    7
 10
46308.425146368412
 20
6923.4972463707891
 11
46308.525146368418
 21
6919.9972463707891
  0
LINE
  8
_1-3_画層1
  6
CONTINUOUS
 62
    7
 10
46308.525146368418
 20
6919.9972463707891
 11
46309.025146368418
 21
6916.5972463707903
  0
LINE
  8
_1-3_画層1
  6
CONTINUOUS
 62
    7
 10
46309.025146368418
 20
6916.5972463707903
 11
46309.725146368422
 21
6913.0972463707903
  0
LINE
  8
_1-3_画層1
  6
CONTINUOUS
 62
    7
 10
46309.725146368422
 20
6913.0972463707903
 11
46310.725146368422
 21
6909.6972463707889
  0
LINE
  8
_1-3_画層1
  6
CONTINUOUS
 62
    7
 10
46310.725146368422
 20
6909.6972463707889
 11
46312.025146368418
 21
6906.3972463707896
  0
LINE
  8
_1-3_画層1
  6
CONTINUOUS
 62
    7
 10
46312.025146368418
 20
6906.3972463707896
 11
46313.525146368418
 21
6903.0972463707913
  0
LINE
  8
_1-3_画層1
  6
CONTINUOUS
 62
    7
 10
46313.525146368418
 20
6903.0972463707913
 11
46315.42514636842
 21
6899.797246370792
  0
LINE
  8
_1-3_画層1
  6
CONTINUOUS
 62
    7
 10
46315.42514636842
 20
6899.797246370792
 11
46317.525146368418
 21
6896.5972463707913
  0
LINE
  8
_1-3_画層1
  6
CONTINUOUS
 62
    7
 10
46317.525146368418
 20
6896.5972463707913
 11
46319.92514636842
 21
6893.3972463707905
  0
LINE
  8
_1-3_画層1
  6
CONTINUOUS
 62
    7
 10
46319.92514636842
 20
6893.3972463707905
 11
46322.525146368418
 21
6890.2972463707929
  0
LINE
  8
_1-3_画層1
  6
CONTINUOUS
 62
    7
 10
46322.525146368418
 20
6890.2972463707929
 11
46325.42514636842
 21
6887.297246370792
  0
LINE
  8
_1-3_画層1
  6
CONTINUOUS
 62
    7
 10
46325.42514636842
 20
6887.297246370792
 11
46328.525146368418
 21
6884.3972463707896
  0
LINE
  8
_1-3_画層1
  6
CONTINUOUS
 62
    7
 10
46328.525146368418
 20
6884.3972463707896
 11
46331.92514636842
 21
6881.5972463707913
  0
LINE
  8
_1-3_画層1
  6
CONTINUOUS
 62
    7
 10
46331.92514636842
 20
6881.5972463707913
 11
46335.525146368418
 21
6878.8972463707896
  0
LINE
  8
_1-3_画層1
  6
CONTINUOUS
 62
    7
 10
46335.525146368418
 20
6878.8972463707896
 11
46339.325146368421
 21
6876.2972463707911
  0
LINE
  8
_1-3_画層1
  6
CONTINUOUS
 62
    7
 10
46339.325146368421
 20
6876.2972463707911
 11
46343.42514636842
 21
6873.7972463707938
  0
LINE
  8
_1-3_画層1
  6
CONTINUOUS
 62
    7
 10
46343.42514636842
 20
6873.7972463707938
 11
46347.625146368424
 21
6871.3972463707905
  0
LINE
  8
_1-3_画層1
  6
CONTINUOUS
 62
    7
 10
46347.625146368424
 20
6871.3972463707905
 11
46352.125146368417
 21
6869.197246370788
  0
LINE
  8
_1-3_画層1
  6
CONTINUOUS
 62
    7
 10
46352.125146368417
 20
6869.197246370788
 11
46356.725146368422
 21
6866.9972463707891
  0
LINE
  8
_1-3_画層1
  6
CONTINUOUS
 62
    7
 10
46356.725146368422
 20
6866.9972463707891
 11
46361.525146368425
 21
6865.0972463707913
  0
LINE
  8
_1-3_画層1
  6
CONTINUOUS
 62
    7
 10
46361.525146368425
 20
6865.0972463707913
 11
46366.42514636842
 21
6863.1972463707907
  0
LINE
  8
_1-3_画層1
  6
CONTINUOUS
 62
    7
 10
46366.42514636842
 20
6863.1972463707907
 11
46371.525146368418
 21
6861.4972463707891
  0
LINE
  8
_1-3_画層1
  6
CONTINUOUS
 62
    7
 10
46371.525146368418
 20
6861.4972463707891
 11
46376.825146368421
 21
6859.99724637079
  0
LINE
  8
_1-3_画層1
  6
CONTINUOUS
 62
    7
 10
46376.825146368421
 20
6859.99724637079
 11
46382.125146368417
 21
6858.5972463707922
  0
LINE
  8
_1-3_画層1
  6
CONTINUOUS
 62
    7
 10
46382.125146368417
 20
6858.5972463707922
 11
46387.625146368417
 21
6857.2972463707911
  0
LINE
  8
_1-3_画層1
  6
CONTINUOUS
 62
    7
 10
46387.625146368417
 20
6857.2972463707911
 11
46393.225146368422
 21
6856.1972463707889
  0
LINE
  8
_1-3_画層1
  6
CONTINUOUS
 62
    7
 10
46393.225146368422
 20
6856.1972463707889
 11
46398.825146368421
 21
6855.2972463707929
  0
LINE
  8
_1-3_画層1
  6
CONTINUOUS
 62
    7
 10
46398.825146368421
 20
6855.2972463707929
 11
46404.525146368418
 21
6854.5972463707931
  0
LINE
  8
_1-3_画層1
  6
CONTINUOUS
 62
    7
 10
46404.525146368418
 20
6854.5972463707931
 11
46410.325146368421
 21
6853.99724637079
  0
LINE
  8
_1-3_画層1
  6
CONTINUOUS
 62
    7
 10
46410.325146368421
 20
6853.99724637079
 11
46416.125146368417
 21
6853.5972463707903
  0
LINE
  8
_1-3_画層1
  6
CONTINUOUS
 62
    7
 10
46416.125146368417
 20
6853.5972463707903
 11
46422.025146368418
 21
6853.297246370792
  0
LINE
  8
_1-3_画層1
  6
CONTINUOUS
 62
    7
 10
46422.025146368418
 20
6853.297246370792
 11
46427.825146368421
 21
6853.1972463707889
  0
LINE
  8
_1-3_画層1
  6
CONTINUOUS
 62
    7
 10
46427.825146368421
 20
6853.1972463707889
 11
46433.725146368422
 21
6853.297246370792
  0
LINE
  8
_1-3_画層1
  6
CONTINUOUS
 62
    7
 10
46433.725146368422
 20
6853.297246370792
 11
46439.625146368417
 21
6853.5972463707903
  0
LINE
  8
_1-3_画層1
  6
CONTINUOUS
 62
    7
 10
46439.625146368417
 20
6853.5972463707903
 11
46445.42514636842
 21
6853.99724637079
  0
LINE
  8
_1-3_画層1
  6
CONTINUOUS
 62
    7
 10
46445.42514636842
 20
6853.99724637079
 11
46451.22514636843
 21
6854.5972463707931
  0
LINE
  8
_1-3_画層1
  6
CONTINUOUS
 62
    7
 10
46451.22514636843
 20
6854.5972463707931
 11
46456.92514636842
 21
6855.2972463707929
  0
LINE
  8
_1-3_画層1
  6
CONTINUOUS
 62
    7
 10
46456.92514636842
 20
6855.2972463707929
 11
46462.525146368418
 21
6856.1972463707889
  0
LINE
  8
_1-3_画層1
  6
CONTINUOUS
 62
    7
 10
46462.525146368418
 20
6856.1972463707889
 11
46468.125146368417
 21
6857.2972463707911
  0
LINE
  8
_1-3_画層1
  6
CONTINUOUS
 62
    7
 10
46468.125146368417
 20
6857.2972463707911
 11
46473.625146368417
 21
6858.5972463707922
  0
LINE
  8
_1-3_画層1
  6
CONTINUOUS
 62
    7
 10
46473.625146368417
 20
6858.5972463707922
 11
46478.92514636842
 21
6859.99724637079
  0
LINE
  8
_1-3_画層1
  6
CONTINUOUS
 62
    7
 10
46478.92514636842
 20
6859.99724637079
 11
46484.225146368422
 21
6861.4972463707891
  0
LINE
  8
_1-3_画層1
  6
CONTINUOUS
 62
    7
 10
46484.225146368422
 20
6861.4972463707891
 11
46489.325146368421
 21
6863.1972463707907
  0
LINE
  8
_1-3_画層1
  6
CONTINUOUS
 62
    7
 10
46489.325146368421
 20
6863.1972463707907
 11
46494.225146368422
 21
6865.0972463707913
  0
LINE
  8
_1-3_画層1
  6
CONTINUOUS
 62
    7
 10
46494.225146368422
 20
6865.0972463707913
 11
46499.025146368425
 21
6866.9972463707891
  0
LINE
  8
_1-3_画層1
  6
CONTINUOUS
 62
    7
 10
46499.025146368425
 20
6866.9972463707891
 11
46503.625146368417
 21
6869.197246370788
  0
LINE
  8
_1-3_画層1
  6
CONTINUOUS
 62
    7
 10
46503.625146368417
 20
6869.197246370788
 11
46508.125146368417
 21
6871.3972463707905
  0
LINE
  8
_1-3_画層1
  6
CONTINUOUS
 62
    7
 10
46508.125146368417
 20
6871.3972463707905
 11
46512.325146368421
 21
6873.7972463707938
  0
LINE
  8
_1-3_画層1
  6
CONTINUOUS
 62
    7
 10
46512.325146368421
 20
6873.7972463707938
 11
46516.42514636842
 21
6876.2972463707911
  0
LINE
  8
_1-3_画層1
  6
CONTINUOUS
 62
    7
 10
46516.42514636842
 20
6876.2972463707911
 11
46520.225146368422
 21
6878.8972463707896
  0
LINE
  8
_1-3_画層1
  6
CONTINUOUS
 62
    7
 10
46520.225146368422
 20
6878.8972463707896
 11
46523.825146368421
 21
6881.5972463707913
  0
LINE
  8
_1-3_画層1
  6
CONTINUOUS
 62
    7
 10
46523.825146368421
 20
6881.5972463707913
 11
46527.225146368422
 21
6884.3972463707896
  0
LINE
  8
_1-3_画層1
  6
CONTINUOUS
 62
    7
 10
46527.225146368422
 20
6884.3972463707896
 11
46530.325146368421
 21
6887.297246370792
  0
LINE
  8
_1-3_画層1
  6
CONTINUOUS
 62
    7
 10
46530.325146368421
 20
6887.297246370792
 11
46533.225146368422
 21
6890.2972463707929
  0
LINE
  8
_1-3_画層1
  6
CONTINUOUS
 62
    7
 10
46533.225146368422
 20
6890.2972463707929
 11
46535.825146368421
 21
6893.3972463707905
  0
LINE
  8
_1-3_画層1
  6
CONTINUOUS
 62
    7
 10
46535.825146368421
 20
6893.3972463707905
 11
46538.225146368422
 21
6896.5972463707913
  0
LINE
  8
_1-3_画層1
  6
CONTINUOUS
 62
    7
 10
46538.225146368422
 20
6896.5972463707913
 11
46540.325146368421
 21
6899.797246370792
  0
LINE
  8
_1-3_画層1
  6
CONTINUOUS
 62
    7
 10
46540.325146368421
 20
6899.797246370792
 11
46542.225146368422
 21
6903.0972463707913
  0
LINE
  8
_1-3_画層1
  6
CONTINUOUS
 62
    7
 10
46542.225146368422
 20
6903.0972463707913
 11
46543.725146368422
 21
6906.3972463707896
  0
LINE
  8
_1-3_画層1
  6
CONTINUOUS
 62
    7
 10
46543.725146368422
 20
6906.3972463707896
 11
46545.025146368411
 21
6909.6972463707889
  0
LINE
  8
_1-3_画層1
  6
CONTINUOUS
 62
    7
 10
46545.025146368411
 20
6909.6972463707889
 11
46546.025146368418
 21
6913.0972463707903
  0
LINE
  8
_1-3_画層1
  6
CONTINUOUS
 62
    7
 10
46546.025146368418
 20
6913.0972463707903
 11
46546.725146368422
 21
6916.5972463707903
  0
LINE
  8
_1-3_画層1
  6
CONTINUOUS
 62
    7
 10
46546.725146368422
 20
6916.5972463707903
 11
46547.225146368422
 21
6919.9972463707891
  0
LINE
  8
_1-3_画層1
  6
CONTINUOUS
 62
    7
 10
46547.225146368422
 20
6919.9972463707891
 11
46547.325146368421
 21
6923.4972463707891
  0
LINE
  8
_1-3_画層1
  6
CONTINUOUS
 62
    7
 10
46598.92514636842
 20
7890.6972463707889
 11
46598.725146368422
 21
7894.197246370788
  0
LINE
  8
_1-3_画層1
  6
CONTINUOUS
 62
    7
 10
46598.725146368422
 20
7894.197246370788
 11
46598.325146368421
 21
7897.5972463707903
  0
LINE
  8
_1-3_画層1
  6
CONTINUOUS
 62
    7
 10
46598.325146368421
 20
7897.5972463707903
 11
46597.625146368424
 21
7900.99724637079
  0
LINE
  8
_1-3_画層1
  6
CONTINUOUS
 62
    7
 10
46597.625146368424
 20
7900.99724637079
 11
46596.625146368417
 21
7904.3972463707914
  0
LINE
  8
_1-3_画層1
  6
CONTINUOUS
 62
    7
 10
46596.625146368417
 20
7904.3972463707914
 11
46595.325146368421
 21
7907.7972463707911
  0
LINE
  8
_1-3_画層1
  6
CONTINUOUS
 62
    7
 10
46595.325146368421
 20
7907.7972463707911
 11
46593.725146368422
 21
7911.0972463707922
  0
LINE
  8
_1-3_画層1
  6
CONTINUOUS
 62
    7
 10
46593.725146368422
 20
7911.0972463707922
 11
46591.92514636842
 21
7914.3972463707914
  0
LINE
  8
_1-3_画層1
  6
CONTINUOUS
 62
    7
 10
46591.92514636842
 20
7914.3972463707914
 11
46589.825146368421
 21
7917.5972463707922
  0
LINE
  8
_1-3_画層1
  6
CONTINUOUS
 62
    7
 10
46589.825146368421
 20
7917.5972463707922
 11
46587.42514636842
 21
7920.7972463707902
  0
LINE
  8
_1-3_画層1
  6
CONTINUOUS
 62
    7
 10
46587.42514636842
 20
7920.7972463707902
 11
46584.825146368421
 21
7923.7972463707902
  0
LINE
  8
_1-3_画層1
  6
CONTINUOUS
 62
    7
 10
46584.825146368421
 20
7923.7972463707902
 11
46581.92514636842
 21
7926.7972463707902
  0
LINE
  8
_1-3_画層1
  6
CONTINUOUS
 62
    7
 10
46581.92514636842
 20
7926.7972463707902
 11
46578.725146368422
 21
7929.7972463707911
  0
LINE
  8
_1-3_画層1
  6
CONTINUOUS
 62
    7
 10
46578.725146368422
 20
7929.7972463707911
 11
46575.42514636842
 21
7932.5972463707894
  0
LINE
  8
_1-3_画層1
  6
CONTINUOUS
 62
    7
 10
46575.42514636842
 20
7932.5972463707894
 11
46571.825146368414
 21
7935.2972463707911
  0
LINE
  8
_1-3_画層1
  6
CONTINUOUS
 62
    7
 10
46571.825146368414
 20
7935.2972463707911
 11
46567.92514636842
 21
7937.8972463707896
  0
LINE
  8
_1-3_画層1
  6
CONTINUOUS
 62
    7
 10
46567.92514636842
 20
7937.8972463707896
 11
46563.92514636842
 21
7940.3972463707905
  0
LINE
  8
_1-3_画層1
  6
CONTINUOUS
 62
    7
 10
46563.92514636842
 20
7940.3972463707905
 11
46559.625146368417
 21
7942.7972463707902
  0
LINE
  8
_1-3_画層1
  6
CONTINUOUS
 62
    7
 10
46559.625146368417
 20
7942.7972463707902
 11
46555.225146368422
 21
7944.9972463707927
  0
LINE
  8
_1-3_画層1
  6
CONTINUOUS
 62
    7
 10
46555.225146368422
 20
7944.9972463707927
 11
46550.625146368417
 21
7947.0972463707913
  0
LINE
  8
_1-3_画層1
  6
CONTINUOUS
 62
    7
 10
46550.625146368417
 20
7947.0972463707913
 11
46545.825146368421
 21
7949.0972463707922
  0
LINE
  8
_1-3_画層1
  6
CONTINUOUS
 62
    7
 10
46545.825146368421
 20
7949.0972463707922
 11
46540.825146368421
 21
7950.99724637079
  0
LINE
  8
_1-3_画層1
  6
CONTINUOUS
 62
    7
 10
46540.825146368421
 20
7950.99724637079
 11
46535.725146368422
 21
7952.6972463707889
  0
LINE
  8
_1-3_画層1
  6
CONTINUOUS
 62
    7
 10
46535.725146368422
 20
7952.6972463707889
 11
46530.525146368418
 21
7954.1972463707907
  0
LINE
  8
_1-3_画層1
  6
CONTINUOUS
 62
    7
 10
46530.525146368418
 20
7954.1972463707907
 11
46525.125146368417
 21
7955.5972463707913
  0
LINE
  8
_1-3_画層1
  6
CONTINUOUS
 62
    7
 10
46525.125146368417
 20
7955.5972463707913
 11
46519.625146368417
 21
7956.8972463707896
  0
LINE
  8
_1-3_画層1
  6
CONTINUOUS
 62
    7
 10
46519.625146368417
 20
7956.8972463707896
 11
46514.125146368417
 21
7957.8972463707914
  0
LINE
  8
_1-3_画層1
  6
CONTINUOUS
 62
    7
 10
46514.125146368417
 20
7957.8972463707914
 11
46508.425146368412
 21
7958.8972463707905
  0
LINE
  8
_1-3_画層1
  6
CONTINUOUS
 62
    7
 10
46508.425146368412
 20
7958.8972463707905
 11
46502.725146368422
 21
7959.5972463707913
  0
LINE
  8
_1-3_画層1
  6
CONTINUOUS
 62
    7
 10
46502.725146368422
 20
7959.5972463707913
 11
46496.92514636842
 21
7960.1972463707907
  0
LINE
  8
_1-3_画層1
  6
CONTINUOUS
 62
    7
 10
46496.92514636842
 20
7960.1972463707907
 11
46491.125146368417
 21
7960.5972463707903
  0
LINE
  8
_1-3_画層1
  6
CONTINUOUS
 62
    7
 10
46491.125146368417
 20
7960.5972463707903
 11
46485.325146368421
 21
7960.8972463707914
  0
LINE
  8
_1-3_画層1
  6
CONTINUOUS
 62
    7
 10
46485.325146368421
 20
7960.8972463707914
 11
46479.42514636842
 21
7960.9972463707918
  0
LINE
  8
_1-3_画層1
  6
CONTINUOUS
 62
    7
 10
46479.42514636842
 20
7960.9972463707918
 11
46473.525146368425
 21
7960.8972463707914
  0
LINE
  8
_1-3_画層1
  6
CONTINUOUS
 62
    7
 10
46473.525146368425
 20
7960.8972463707914
 11
46467.725146368422
 21
7960.5972463707903
  0
LINE
  8
_1-3_画層1
  6
CONTINUOUS
 62
    7
 10
46467.725146368422
 20
7960.5972463707903
 11
46461.925146368427
 21
7960.1972463707907
  0
LINE
  8
_1-3_画層1
  6
CONTINUOUS
 62
    7
 10
46461.925146368427
 20
7960.1972463707907
 11
46456.125146368417
 21
7959.5972463707913
  0
LINE
  8
_1-3_画層1
  6
CONTINUOUS
 62
    7
 10
46456.125146368417
 20
7959.5972463707913
 11
46450.42514636842
 21
7958.8972463707905
  0
LINE
  8
_1-3_画層1
  6
CONTINUOUS
 62
    7
 10
46450.42514636842
 20
7958.8972463707905
 11
46444.725146368422
 21
7957.8972463707914
  0
LINE
  8
_1-3_画層1
  6
CONTINUOUS
 62
    7
 10
46444.725146368422
 20
7957.8972463707914
 11
46439.225146368422
 21
7956.8972463707896
  0
LINE
  8
_1-3_画層1
  6
CONTINUOUS
 62
    7
 10
46439.225146368422
 20
7956.8972463707896
 11
46433.725146368422
 21
7955.5972463707913
  0
LINE
  8
_1-3_画層1
  6
CONTINUOUS
 62
    7
 10
46433.725146368422
 20
7955.5972463707913
 11
46428.325146368421
 21
7954.1972463707907
  0
LINE
  8
_1-3_画層1
  6
CONTINUOUS
 62
    7
 10
46428.325146368421
 20
7954.1972463707907
 11
46423.125146368417
 21
7952.6972463707889
  0
LINE
  8
_1-3_画層1
  6
CONTINUOUS
 62
    7
 10
46423.125146368417
 20
7952.6972463707889
 11
46418.025146368418
 21
7950.99724637079
  0
LINE
  8
_1-3_画層1
  6
CONTINUOUS
 62
    7
 10
46418.025146368418
 20
7950.99724637079
 11
46413.025146368418
 21
7949.0972463707922
  0
LINE
  8
_1-3_画層1
  6
CONTINUOUS
 62
    7
 10
46413.025146368418
 20
7949.0972463707922
 11
46408.225146368422
 21
7947.0972463707913
  0
LINE
  8
_1-3_画層1
  6
CONTINUOUS
 62
    7
 10
46408.225146368422
 20
7947.0972463707913
 11
46403.625146368417
 21
7944.9972463707927
  0
LINE
  8
_1-3_画層1
  6
CONTINUOUS
 62
    7
 10
46403.625146368417
 20
7944.9972463707927
 11
46399.225146368422
 21
7942.7972463707902
  0
LINE
  8
_1-3_画層1
  6
CONTINUOUS
 62
    7
 10
46399.225146368422
 20
7942.7972463707902
 11
46394.92514636842
 21
7940.3972463707905
  0
LINE
  8
_1-3_画層1
  6
CONTINUOUS
 62
    7
 10
46394.92514636842
 20
7940.3972463707905
 11
46390.92514636842
 21
7937.8972463707896
  0
LINE
  8
_1-3_画層1
  6
CONTINUOUS
 62
    7
 10
46390.92514636842
 20
7937.8972463707896
 11
46387.125146368417
 21
7935.2972463707911
  0
LINE
  8
_1-3_画層1
  6
CONTINUOUS
 62
    7
 10
46387.125146368417
 20
7935.2972463707911
 11
46383.425146368412
 21
7932.5972463707894
  0
LINE
  8
_1-3_画層1
  6
CONTINUOUS
 62
    7
 10
46383.425146368412
 20
7932.5972463707894
 11
46380.125146368417
 21
7929.7972463707911
  0
LINE
  8
_1-3_画層1
  6
CONTINUOUS
 62
    7
 10
46380.125146368417
 20
7929.7972463707911
 11
46376.92514636842
 21
7926.7972463707902
  0
LINE
  8
_1-3_画層1
  6
CONTINUOUS
 62
    7
 10
46376.92514636842
 20
7926.7972463707902
 11
46374.025146368425
 21
7923.7972463707902
  0
LINE
  8
_1-3_画層1
  6
CONTINUOUS
 62
    7
 10
46374.025146368425
 20
7923.7972463707902
 11
46371.42514636842
 21
7920.7972463707902
  0
LINE
  8
_1-3_画層1
  6
CONTINUOUS
 62
    7
 10
46371.42514636842
 20
7920.7972463707902
 11
46369.025146368418
 21
7917.5972463707922
  0
LINE
  8
_1-3_画層1
  6
CONTINUOUS
 62
    7
 10
46369.025146368418
 20
7917.5972463707922
 11
46366.92514636842
 21
7914.3972463707914
  0
LINE
  8
_1-3_画層1
  6
CONTINUOUS
 62
    7
 10
46366.92514636842
 20
7914.3972463707914
 11
46365.125146368417
 21
7911.0972463707922
  0
LINE
  8
_1-3_画層1
  6
CONTINUOUS
 62
    7
 10
46365.125146368417
 20
7911.0972463707922
 11
46363.525146368418
 21
7907.7972463707911
  0
LINE
  8
_1-3_画層1
  6
CONTINUOUS
 62
    7
 10
46363.525146368418
 20
7907.7972463707911
 11
46362.225146368422
 21
7904.3972463707914
  0
LINE
  8
_1-3_画層1
  6
CONTINUOUS
 62
    7
 10
46362.225146368422
 20
7904.3972463707914
 11
46361.225146368422
 21
7900.99724637079
  0
LINE
  8
_1-3_画層1
  6
CONTINUOUS
 62
    7
 10
46361.225146368422
 20
7900.99724637079
 11
46360.525146368418
 21
7897.5972463707903
  0
LINE
  8
_1-3_画層1
  6
CONTINUOUS
 62
    7
 10
46360.525146368418
 20
7897.5972463707903
 11
46360.125146368424
 21
7894.197246370788
  0
LINE
  8
_1-3_画層1
  6
CONTINUOUS
 62
    7
 10
46360.125146368424
 20
7894.197246370788
 11
46359.92514636842
 21
7890.6972463707889
  0
LINE
  8
_1-3_画層1
  6
CONTINUOUS
 62
    7
 10
46359.92514636842
 20
7890.6972463707889
 11
46360.125146368424
 21
7887.2972463707893
  0
LINE
  8
_1-3_画層1
  6
CONTINUOUS
 62
    7
 10
46360.125146368424
 20
7887.2972463707893
 11
46360.525146368418
 21
7883.8972463707905
  0
LINE
  8
_1-3_画層1
  6
CONTINUOUS
 62
    7
 10
46360.525146368418
 20
7883.8972463707905
 11
46361.225146368422
 21
7880.3972463707905
  0
LINE
  8
_1-3_画層1
  6
CONTINUOUS
 62
    7
 10
46361.225146368422
 20
7880.3972463707905
 11
46362.225146368422
 21
7876.9972463707918
  0
LINE
  8
_1-3_画層1
  6
CONTINUOUS
 62
    7
 10
46362.225146368422
 20
7876.9972463707918
 11
46363.525146368418
 21
7873.6972463707898
  0
LINE
  8
_1-3_画層1
  6
CONTINUOUS
 62
    7
 10
46363.525146368418
 20
7873.6972463707898
 11
46365.125146368417
 21
7870.2972463707911
  0
LINE
  8
_1-3_画層1
  6
CONTINUOUS
 62
    7
 10
46365.125146368417
 20
7870.2972463707911
 11
46366.92514636842
 21
7867.0972463707931
  0
LINE
  8
_1-3_画層1
  6
CONTINUOUS
 62
    7
 10
46366.92514636842
 20
7867.0972463707931
 11
46369.025146368418
 21
7863.8972463707914
  0
LINE
  8
_1-3_画層1
  6
CONTINUOUS
 62
    7
 10
46369.025146368418
 20
7863.8972463707914
 11
46371.42514636842
 21
7860.6972463707907
  0
LINE
  8
_1-3_画層1
  6
CONTINUOUS
 62
    7
 10
46371.42514636842
 20
7860.6972463707907
 11
46374.025146368425
 21
7857.5972463707894
  0
LINE
  8
_1-3_画層1
  6
CONTINUOUS
 62
    7
 10
46374.025146368425
 20
7857.5972463707894
 11
46376.92514636842
 21
7854.5972463707931
  0
LINE
  8
_1-3_画層1
  6
CONTINUOUS
 62
    7
 10
46376.92514636842
 20
7854.5972463707931
 11
46380.125146368417
 21
7851.6972463707898
  0
LINE
  8
_1-3_画層1
  6
CONTINUOUS
 62
    7
 10
46380.125146368417
 20
7851.6972463707898
 11
46383.425146368412
 21
7848.8972463707905
  0
LINE
  8
_1-3_画層1
  6
CONTINUOUS
 62
    7
 10
46383.425146368412
 20
7848.8972463707905
 11
46387.125146368417
 21
7846.1972463707898
  0
LINE
  8
_1-3_画層1
  6
CONTINUOUS
 62
    7
 10
46387.125146368417
 20
7846.1972463707898
 11
46390.92514636842
 21
7843.5972463707913
  0
LINE
  8
_1-3_画層1
  6
CONTINUOUS
 62
    7
 10
46390.92514636842
 20
7843.5972463707913
 11
46394.92514636842
 21
7841.0972463707903
  0
LINE
  8
_1-3_画層1
  6
CONTINUOUS
 62
    7
 10
46394.92514636842
 20
7841.0972463707903
 11
46399.225146368422
 21
7838.6972463707907
  0
LINE
  8
_1-3_画層1
  6
CONTINUOUS
 62
    7
 10
46399.225146368422
 20
7838.6972463707907
 11
46403.625146368417
 21
7836.3972463707905
  0
LINE
  8
_1-3_画層1
  6
CONTINUOUS
 62
    7
 10
46403.625146368417
 20
7836.3972463707905
 11
46408.225146368422
 21
7834.2972463707893
  0
LINE
  8
_1-3_画層1
  6
CONTINUOUS
 62
    7
 10
46408.225146368422
 20
7834.2972463707893
 11
46413.025146368418
 21
7832.2972463707911
  0
LINE
  8
_1-3_画層1
  6
CONTINUOUS
 62
    7
 10
46413.025146368418
 20
7832.2972463707911
 11
46418.025146368418
 21
7830.4972463707909
  0
LINE
  8
_1-3_画層1
  6
CONTINUOUS
 62
    7
 10
46418.025146368418
 20
7830.4972463707909
 11
46423.125146368417
 21
7828.7972463707883
  0
LINE
  8
_1-3_画層1
  6
CONTINUOUS
 62
    7
 10
46423.125146368417
 20
7828.7972463707883
 11
46428.325146368421
 21
7827.2972463707902
  0
LINE
  8
_1-3_画層1
  6
CONTINUOUS
 62
    7
 10
46428.325146368421
 20
7827.2972463707902
 11
46433.725146368422
 21
7825.8972463707887
  0
LINE
  8
_1-3_画層1
  6
CONTINUOUS
 62
    7
 10
46433.725146368422
 20
7825.8972463707887
 11
46439.225146368422
 21
7824.5972463707913
  0
LINE
  8
_1-3_画層1
  6
CONTINUOUS
 62
    7
 10
46439.225146368422
 20
7824.5972463707913
 11
46444.725146368422
 21
7823.4972463707918
  0
LINE
  8
_1-3_画層1
  6
CONTINUOUS
 62
    7
 10
46444.725146368422
 20
7823.4972463707918
 11
46450.42514636842
 21
7822.5972463707903
  0
LINE
  8
_1-3_画層1
  6
CONTINUOUS
 62
    7
 10
46450.42514636842
 20
7822.5972463707903
 11
46456.125146368417
 21
7821.8972463707896
  0
LINE
  8
_1-3_画層1
  6
CONTINUOUS
 62
    7
 10
46456.125146368417
 20
7821.8972463707896
 11
46461.925146368427
 21
7821.2972463707902
  0
LINE
  8
_1-3_画層1
  6
CONTINUOUS
 62
    7
 10
46461.925146368427
 20
7821.2972463707902
 11
46467.725146368422
 21
7820.7972463707902
  0
LINE
  8
_1-3_画層1
  6
CONTINUOUS
 62
    7
 10
46467.725146368422
 20
7820.7972463707902
 11
46473.525146368425
 21
7820.5972463707922
  0
LINE
  8
_1-3_画層1
  6
CONTINUOUS
 62
    7
 10
46473.525146368425
 20
7820.5972463707922
 11
46479.42514636842
 21
7820.4972463707918
  0
LINE
  8
_1-3_画層1
  6
CONTINUOUS
 62
    7
 10
46479.42514636842
 20
7820.4972463707918
 11
46485.325146368421
 21
7820.5972463707922
  0
LINE
  8
_1-3_画層1
  6
CONTINUOUS
 62
    7
 10
46485.325146368421
 20
7820.5972463707922
 11
46491.125146368417
 21
7820.7972463707902
  0
LINE
  8
_1-3_画層1
  6
CONTINUOUS
 62
    7
 10
46491.125146368417
 20
7820.7972463707902
 11
46496.92514636842
 21
7821.2972463707902
  0
LINE
  8
_1-3_画層1
  6
CONTINUOUS
 62
    7
 10
46496.92514636842
 20
7821.2972463707902
 11
46502.725146368422
 21
7821.8972463707896
  0
LINE
  8
_1-3_画層1
  6
CONTINUOUS
 62
    7
 10
46502.725146368422
 20
7821.8972463707896
 11
46508.425146368412
 21
7822.5972463707903
  0
LINE
  8
_1-3_画層1
  6
CONTINUOUS
 62
    7
 10
46508.425146368412
 20
7822.5972463707903
 11
46514.125146368417
 21
7823.4972463707918
  0
LINE
  8
_1-3_画層1
  6
CONTINUOUS
 62
    7
 10
46514.125146368417
 20
7823.4972463707918
 11
46519.625146368417
 21
7824.5972463707913
  0
LINE
  8
_1-3_画層1
  6
CONTINUOUS
 62
    7
 10
46519.625146368417
 20
7824.5972463707913
 11
46525.125146368417
 21
7825.8972463707887
  0
LINE
  8
_1-3_画層1
  6
CONTINUOUS
 62
    7
 10
46525.125146368417
 20
7825.8972463707887
 11
46530.525146368418
 21
7827.2972463707902
  0
LINE
  8
_1-3_画層1
  6
CONTINUOUS
 62
    7
 10
46530.525146368418
 20
7827.2972463707902
 11
46535.725146368422
 21
7828.7972463707883
  0
LINE
  8
_1-3_画層1
  6
CONTINUOUS
 62
    7
 10
46535.725146368422
 20
7828.7972463707883
 11
46540.825146368421
 21
7830.4972463707909
  0
LINE
  8
_1-3_画層1
  6
CONTINUOUS
 62
    7
 10
46540.825146368421
 20
7830.4972463707909
 11
46545.825146368421
 21
7832.2972463707911
  0
LINE
  8
_1-3_画層1
  6
CONTINUOUS
 62
    7
 10
46545.825146368421
 20
7832.2972463707911
 11
46550.625146368417
 21
7834.2972463707893
  0
LINE
  8
_1-3_画層1
  6
CONTINUOUS
 62
    7
 10
46550.625146368417
 20
7834.2972463707893
 11
46555.225146368422
 21
7836.3972463707905
  0
LINE
  8
_1-3_画層1
  6
CONTINUOUS
 62
    7
 10
46555.225146368422
 20
7836.3972463707905
 11
46559.625146368417
 21
7838.6972463707907
  0
LINE
  8
_1-3_画層1
  6
CONTINUOUS
 62
    7
 10
46559.625146368417
 20
7838.6972463707907
 11
46563.92514636842
 21
7841.0972463707903
  0
LINE
  8
_1-3_画層1
  6
CONTINUOUS
 62
    7
 10
46563.92514636842
 20
7841.0972463707903
 11
46567.92514636842
 21
7843.5972463707913
  0
LINE
  8
_1-3_画層1
  6
CONTINUOUS
 62
    7
 10
46567.92514636842
 20
7843.5972463707913
 11
46571.825146368414
 21
7846.1972463707898
  0
LINE
  8
_1-3_画層1
  6
CONTINUOUS
 62
    7
 10
46571.825146368414
 20
7846.1972463707898
 11
46575.42514636842
 21
7848.8972463707905
  0
LINE
  8
_1-3_画層1
  6
CONTINUOUS
 62
    7
 10
46575.42514636842
 20
7848.8972463707905
 11
46578.725146368422
 21
7851.6972463707898
  0
LINE
  8
_1-3_画層1
  6
CONTINUOUS
 62
    7
 10
46578.725146368422
 20
7851.6972463707898
 11
46581.92514636842
 21
7854.5972463707931
  0
LINE
  8
_1-3_画層1
  6
CONTINUOUS
 62
    7
 10
46581.92514636842
 20
7854.5972463707931
 11
46584.825146368421
 21
7857.5972463707894
  0
LINE
  8
_1-3_画層1
  6
CONTINUOUS
 62
    7
 10
46584.825146368421
 20
7857.5972463707894
 11
46587.42514636842
 21
7860.6972463707907
  0
LINE
  8
_1-3_画層1
  6
CONTINUOUS
 62
    7
 10
46587.42514636842
 20
7860.6972463707907
 11
46589.825146368421
 21
7863.8972463707914
  0
LINE
  8
_1-3_画層1
  6
CONTINUOUS
 62
    7
 10
46589.825146368421
 20
7863.8972463707914
 11
46591.92514636842
 21
7867.0972463707931
  0
LINE
  8
_1-3_画層1
  6
CONTINUOUS
 62
    7
 10
46591.92514636842
 20
7867.0972463707931
 11
46593.725146368422
 21
7870.2972463707911
  0
LINE
  8
_1-3_画層1
  6
CONTINUOUS
 62
    7
 10
46593.725146368422
 20
7870.2972463707911
 11
46595.325146368421
 21
7873.6972463707898
  0
LINE
  8
_1-3_画層1
  6
CONTINUOUS
 62
    7
 10
46595.325146368421
 20
7873.6972463707898
 11
46596.625146368417
 21
7876.9972463707918
  0
LINE
  8
_1-3_画層1
  6
CONTINUOUS
 62
    7
 10
46596.625146368417
 20
7876.9972463707918
 11
46597.625146368424
 21
7880.3972463707905
  0
LINE
  8
_1-3_画層1
  6
CONTINUOUS
 62
    7
 10
46597.625146368424
 20
7880.3972463707905
 11
46598.325146368421
 21
7883.8972463707905
  0
LINE
  8
_1-3_画層1
  6
CONTINUOUS
 62
    7
 10
46598.325146368421
 20
7883.8972463707905
 11
46598.725146368422
 21
7887.2972463707893
  0
LINE
  8
_1-3_画層1
  6
CONTINUOUS
 62
    7
 10
46598.725146368422
 20
7887.2972463707893
 11
46598.92514636842
 21
7890.6972463707889
  0
LINE
  8
_1-3_画層1
  6
CONTINUOUS
 62
    7
 10
46604.625146368417
 20
8995.8972463707905
 11
46604.525146368418
 21
8999.3972463707905
  0
LINE
  8
_1-3_画層1
  6
CONTINUOUS
 62
    7
 10
46604.525146368418
 20
8999.3972463707905
 11
46604.025146368418
 21
9002.7972463707902
  0
LINE
  8
_1-3_画層1
  6
CONTINUOUS
 62
    7
 10
46604.025146368418
 20
9002.7972463707902
 11
46603.325146368421
 21
9006.1972463707898
  0
LINE
  8
_1-3_画層1
  6
CONTINUOUS
 62
    7
 10
46603.325146368421
 20
9006.1972463707898
 11
46602.325146368421
 21
9009.5972463707913
  0
LINE
  8
_1-3_画層1
  6
CONTINUOUS
 62
    7
 10
46602.325146368421
 20
9009.5972463707913
 11
46601.025146368418
 21
9012.9972463707909
  0
LINE
  8
_1-3_画層1
  6
CONTINUOUS
 62
    7
 10
46601.025146368418
 20
9012.9972463707909
 11
46599.525146368418
 21
9016.2972463707902
  0
LINE
  8
_1-3_画層1
  6
CONTINUOUS
 62
    7
 10
46599.525146368418
 20
9016.2972463707902
 11
46597.625146368424
 21
9019.5972463707913
  0
LINE
  8
_1-3_画層1
  6
CONTINUOUS
 62
    7
 10
46597.625146368424
 20
9019.5972463707913
 11
46595.525146368418
 21
9022.7972463707902
  0
LINE
  8
_1-3_画層1
  6
CONTINUOUS
 62
    7
 10
46595.525146368418
 20
9022.7972463707902
 11
46593.125146368417
 21
9025.9972463707909
  0
LINE
  8
_1-3_画層1
  6
CONTINUOUS
 62
    7
 10
46593.125146368417
 20
9025.9972463707909
 11
46590.525146368418
 21
9028.9972463707909
  0
LINE
  8
_1-3_画層1
  6
CONTINUOUS
 62
    7
 10
46590.525146368418
 20
9028.9972463707909
 11
46587.625146368417
 21
9031.9972463707909
  0
LINE
  8
_1-3_画層1
  6
CONTINUOUS
 62
    7
 10
46587.625146368417
 20
9031.9972463707909
 11
46584.525146368418
 21
9034.9972463707909
  0
LINE
  8
_1-3_画層1
  6
CONTINUOUS
 62
    7
 10
46584.525146368418
 20
9034.9972463707909
 11
46581.125146368417
 21
9037.7972463707902
  0
LINE
  8
_1-3_画層1
  6
CONTINUOUS
 62
    7
 10
46581.125146368417
 20
9037.7972463707902
 11
46577.525146368418
 21
9040.4972463707909
  0
LINE
  8
_1-3_画層1
  6
CONTINUOUS
 62
    7
 10
46577.525146368418
 20
9040.4972463707909
 11
46573.725146368422
 21
9043.0972463707913
  0
LINE
  8
_1-3_画層1
  6
CONTINUOUS
 62
    7
 10
46573.725146368422
 20
9043.0972463707913
 11
46569.625146368417
 21
9045.5972463707913
  0
LINE
  8
_1-3_画層1
  6
CONTINUOUS
 62
    7
 10
46569.625146368417
 20
9045.5972463707913
 11
46565.42514636842
 21
9047.9972463707909
  0
LINE
  8
_1-3_画層1
  6
CONTINUOUS
 62
    7
 10
46565.42514636842
 20
9047.9972463707909
 11
46560.92514636842
 21
9050.1972463707898
  0
LINE
  8
_1-3_画層1
  6
CONTINUOUS
 62
    7
 10
46560.92514636842
 20
9050.1972463707898
 11
46556.325146368421
 21
9052.2972463707902
  0
LINE
  8
_1-3_画層1
  6
CONTINUOUS
 62
    7
 10
46556.325146368421
 20
9052.2972463707902
 11
46551.525146368418
 21
9054.2972463707902
  0
LINE
  8
_1-3_画層1
  6
CONTINUOUS
 62
    7
 10
46551.525146368418
 20
9054.2972463707902
 11
46546.625146368417
 21
9056.1972463707898
  0
LINE
  8
_1-3_画層1
  6
CONTINUOUS
 62
    7
 10
46546.625146368417
 20
9056.1972463707898
 11
46541.525146368418
 21
9057.8972463707905
  0
LINE
  8
_1-3_画層1
  6
CONTINUOUS
 62
    7
 10
46541.525146368418
 20
9057.8972463707905
 11
46536.225146368422
 21
9059.3972463707905
  0
LINE
  8
_1-3_画層1
  6
CONTINUOUS
 62
    7
 10
46536.225146368422
 20
9059.3972463707905
 11
46530.92514636842
 21
9060.7972463707902
  0
LINE
  8
_1-3_画層1
  6
CONTINUOUS
 62
    7
 10
46530.92514636842
 20
9060.7972463707902
 11
46525.42514636842
 21
9062.0972463707913
  0
LINE
  8
_1-3_画層1
  6
CONTINUOUS
 62
    7
 10
46525.42514636842
 20
9062.0972463707913
 11
46519.825146368421
 21
9063.0972463707913
  0
LINE
  8
_1-3_画層1
  6
CONTINUOUS
 62
    7
 10
46519.825146368421
 20
9063.0972463707913
 11
46514.225146368422
 21
9064.0972463707913
  0
LINE
  8
_1-3_画層1
  6
CONTINUOUS
 62
    7
 10
46514.225146368422
 20
9064.0972463707913
 11
46508.525146368418
 21
9064.7972463707902
  0
LINE
  8
_1-3_画層1
  6
CONTINUOUS
 62
    7
 10
46508.525146368418
 20
9064.7972463707902
 11
46502.725146368422
 21
9065.3972463707905
  0
LINE
  8
_1-3_画層1
  6
CONTINUOUS
 62
    7
 10
46502.725146368422
 20
9065.3972463707905
 11
46496.92514636842
 21
9065.7972463707902
  0
LINE
  8
_1-3_画層1
  6
CONTINUOUS
 62
    7
 10
46496.92514636842
 20
9065.7972463707902
 11
46491.025146368418
 21
9066.0972463707913
  0
LINE
  8
_1-3_画層1
  6
CONTINUOUS
 62
    7
 10
46491.025146368418
 20
9066.0972463707913
 11
46485.125146368424
 21
9066.1972463707898
  0
LINE
  8
_1-3_画層1
  6
CONTINUOUS
 62
    7
 10
46485.125146368424
 20
9066.1972463707898
 11
46479.325146368421
 21
9066.0972463707913
  0
LINE
  8
_1-3_画層1
  6
CONTINUOUS
 62
    7
 10
46479.325146368421
 20
9066.0972463707913
 11
46473.42514636842
 21
9065.7972463707902
  0
LINE
  8
_1-3_画層1
  6
CONTINUOUS
 62
    7
 10
46473.42514636842
 20
9065.7972463707902
 11
46467.625146368417
 21
9065.3972463707905
  0
LINE
  8
_1-3_画層1
  6
CONTINUOUS
 62
    7
 10
46467.625146368417
 20
9065.3972463707905
 11
46461.825146368421
 21
9064.7972463707902
  0
LINE
  8
_1-3_画層1
  6
CONTINUOUS
 62
    7
 10
46461.825146368421
 20
9064.7972463707902
 11
46456.125146368417
 21
9064.0972463707913
  0
LINE
  8
_1-3_画層1
  6
CONTINUOUS
 62
    7
 10
46456.125146368417
 20
9064.0972463707913
 11
46450.525146368418
 21
9063.0972463707913
  0
LINE
  8
_1-3_画層1
  6
CONTINUOUS
 62
    7
 10
46450.525146368418
 20
9063.0972463707913
 11
46444.92514636842
 21
9062.0972463707913
  0
LINE
  8
_1-3_画層1
  6
CONTINUOUS
 62
    7
 10
46444.92514636842
 20
9062.0972463707913
 11
46439.42514636842
 21
9060.7972463707902
  0
LINE
  8
_1-3_画層1
  6
CONTINUOUS
 62
    7
 10
46439.42514636842
 20
9060.7972463707902
 11
46434.125146368417
 21
9059.3972463707905
  0
LINE
  8
_1-3_画層1
  6
CONTINUOUS
 62
    7
 10
46434.125146368417
 20
9059.3972463707905
 11
46428.825146368421
 21
9057.8972463707905
  0
LINE
  8
_1-3_画層1
  6
CONTINUOUS
 62
    7
 10
46428.825146368421
 20
9057.8972463707905
 11
46423.725146368422
 21
9056.1972463707898
  0
LINE
  8
_1-3_画層1
  6
CONTINUOUS
 62
    7
 10
46423.725146368422
 20
9056.1972463707898
 11
46418.825146368421
 21
9054.2972463707902
  0
LINE
  8
_1-3_画層1
  6
CONTINUOUS
 62
    7
 10
46418.825146368421
 20
9054.2972463707902
 11
46414.025146368418
 21
9052.2972463707902
  0
LINE
  8
_1-3_画層1
  6
CONTINUOUS
 62
    7
 10
46414.025146368418
 20
9052.2972463707902
 11
46409.42514636842
 21
9050.1972463707898
  0
LINE
  8
_1-3_画層1
  6
CONTINUOUS
 62
    7
 10
46409.42514636842
 20
9050.1972463707898
 11
46404.92514636842
 21
9047.9972463707909
  0
LINE
  8
_1-3_画層1
  6
CONTINUOUS
 62
    7
 10
46404.92514636842
 20
9047.9972463707909
 11
46400.725146368422
 21
9045.5972463707913
  0
LINE
  8
_1-3_画層1
  6
CONTINUOUS
 62
    7
 10
46400.725146368422
 20
9045.5972463707913
 11
46396.625146368417
 21
9043.0972463707913
  0
LINE
  8
_1-3_画層1
  6
CONTINUOUS
 62
    7
 10
46396.625146368417
 20
9043.0972463707913
 11
46392.825146368421
 21
9040.4972463707909
  0
LINE
  8
_1-3_画層1
  6
CONTINUOUS
 62
    7
 10
46392.825146368421
 20
9040.4972463707909
 11
46389.225146368422
 21
9037.7972463707902
  0
LINE
  8
_1-3_画層1
  6
CONTINUOUS
 62
    7
 10
46389.225146368422
 20
9037.7972463707902
 11
46385.825146368421
 21
9034.9972463707909
  0
LINE
  8
_1-3_画層1
  6
CONTINUOUS
 62
    7
 10
46385.825146368421
 20
9034.9972463707909
 11
46382.725146368422
 21
9031.9972463707909
  0
LINE
  8
_1-3_画層1
  6
CONTINUOUS
 62
    7
 10
46382.725146368422
 20
9031.9972463707909
 11
46379.825146368421
 21
9028.9972463707909
  0
LINE
  8
_1-3_画層1
  6
CONTINUOUS
 62
    7
 10
46379.825146368421
 20
9028.9972463707909
 11
46377.225146368422
 21
9025.9972463707909
  0
LINE
  8
_1-3_画層1
  6
CONTINUOUS
 62
    7
 10
46377.225146368422
 20
9025.9972463707909
 11
46374.825146368421
 21
9022.7972463707902
  0
LINE
  8
_1-3_画層1
  6
CONTINUOUS
 62
    7
 10
46374.825146368421
 20
9022.7972463707902
 11
46372.725146368415
 21
9019.5972463707913
  0
LINE
  8
_1-3_画層1
  6
CONTINUOUS
 62
    7
 10
46372.725146368415
 20
9019.5972463707913
 11
46370.825146368421
 21
9016.2972463707902
  0
LINE
  8
_1-3_画層1
  6
CONTINUOUS
 62
    7
 10
46370.825146368421
 20
9016.2972463707902
 11
46369.325146368421
 21
9012.9972463707909
  0
LINE
  8
_1-3_画層1
  6
CONTINUOUS
 62
    7
 10
46369.325146368421
 20
9012.9972463707909
 11
46368.025146368418
 21
9009.5972463707913
  0
LINE
  8
_1-3_画層1
  6
CONTINUOUS
 62
    7
 10
46368.025146368418
 20
9009.5972463707913
 11
46367.025146368418
 21
9006.1972463707898
  0
LINE
  8
_1-3_画層1
  6
CONTINUOUS
 62
    7
 10
46367.025146368418
 20
9006.1972463707898
 11
46366.325146368421
 21
9002.7972463707902
  0
LINE
  8
_1-3_画層1
  6
CONTINUOUS
 62
    7
 10
46366.325146368421
 20
9002.7972463707902
 11
46365.825146368421
 21
8999.3972463707905
  0
LINE
  8
_1-3_画層1
  6
CONTINUOUS
 62
    7
 10
46365.825146368421
 20
8999.3972463707905
 11
46365.725146368422
 21
8995.8972463707905
  0
LINE
  8
_1-3_画層1
  6
CONTINUOUS
 62
    7
 10
46365.725146368422
 20
8995.8972463707905
 11
46365.825146368421
 21
8992.4972463707909
  0
LINE
  8
_1-3_画層1
  6
CONTINUOUS
 62
    7
 10
46365.825146368421
 20
8992.4972463707909
 11
46366.325146368421
 21
8989.0972463707913
  0
LINE
  8
_1-3_画層1
  6
CONTINUOUS
 62
    7
 10
46366.325146368421
 20
8989.0972463707913
 11
46367.025146368418
 21
8985.5972463707913
  0
LINE
  8
_1-3_画層1
  6
CONTINUOUS
 62
    7
 10
46367.025146368418
 20
8985.5972463707913
 11
46368.025146368418
 21
8982.1972463707898
  0
LINE
  8
_1-3_画層1
  6
CONTINUOUS
 62
    7
 10
46368.025146368418
 20
8982.1972463707898
 11
46369.325146368421
 21
8978.8972463707905
  0
LINE
  8
_1-3_画層1
  6
CONTINUOUS
 62
    7
 10
46369.325146368421
 20
8978.8972463707905
 11
46370.825146368421
 21
8975.5972463707913
  0
LINE
  8
_1-3_画層1
  6
CONTINUOUS
 62
    7
 10
46370.825146368421
 20
8975.5972463707913
 11
46372.725146368415
 21
8972.2972463707902
  0
LINE
  8
_1-3_画層1
  6
CONTINUOUS
 62
    7
 10
46372.725146368415
 20
8972.2972463707902
 11
46374.825146368421
 21
8969.0972463707913
  0
LINE
  8
_1-3_画層1
  6
CONTINUOUS
 62
    7
 10
46374.825146368421
 20
8969.0972463707913
 11
46377.225146368422
 21
8965.8972463707905
  0
LINE
  8
_1-3_画層1
  6
CONTINUOUS
 62
    7
 10
46377.225146368422
 20
8965.8972463707905
 11
46379.825146368421
 21
8962.7972463707902
  0
LINE
  8
_1-3_画層1
  6
CONTINUOUS
 62
    7
 10
46379.825146368421
 20
8962.7972463707902
 11
46382.725146368422
 21
8959.7972463707902
  0
LINE
  8
_1-3_画層1
  6
CONTINUOUS
 62
    7
 10
46382.725146368422
 20
8959.7972463707902
 11
46385.825146368421
 21
8956.8972463707905
  0
LINE
  8
_1-3_画層1
  6
CONTINUOUS
 62
    7
 10
46385.825146368421
 20
8956.8972463707905
 11
46389.225146368422
 21
8954.0972463707913
  0
LINE
  8
_1-3_画層1
  6
CONTINUOUS
 62
    7
 10
46389.225146368422
 20
8954.0972463707913
 11
46392.825146368421
 21
8951.3972463707905
  0
LINE
  8
_1-3_画層1
  6
CONTINUOUS
 62
    7
 10
46392.825146368421
 20
8951.3972463707905
 11
46396.625146368417
 21
8948.7972463707902
  0
LINE
  8
_1-3_画層1
  6
CONTINUOUS
 62
    7
 10
46396.625146368417
 20
8948.7972463707902
 11
46400.725146368422
 21
8946.2972463707902
  0
LINE
  8
_1-3_画層1
  6
CONTINUOUS
 62
    7
 10
46400.725146368422
 20
8946.2972463707902
 11
46404.92514636842
 21
8943.8972463707905
  0
LINE
  8
_1-3_画層1
  6
CONTINUOUS
 62
    7
 10
46404.92514636842
 20
8943.8972463707905
 11
46409.42514636842
 21
8941.6972463707898
  0
LINE
  8
_1-3_画層1
  6
CONTINUOUS
 62
    7
 10
46409.42514636842
 20
8941.6972463707898
 11
46414.025146368418
 21
8939.4972463707909
  0
LINE
  8
_1-3_画層1
  6
CONTINUOUS
 62
    7
 10
46414.025146368418
 20
8939.4972463707909
 11
46418.825146368421
 21
8937.4972463707909
  0
LINE
  8
_1-3_画層1
  6
CONTINUOUS
 62
    7
 10
46418.825146368421
 20
8937.4972463707909
 11
46423.725146368422
 21
8935.6972463707898
  0
LINE
  8
_1-3_画層1
  6
CONTINUOUS
 62
    7
 10
46423.725146368422
 20
8935.6972463707898
 11
46428.825146368421
 21
8933.9972463707909
  0
LINE
  8
_1-3_画層1
  6
CONTINUOUS
 62
    7
 10
46428.825146368421
 20
8933.9972463707909
 11
46434.125146368417
 21
8932.4972463707909
  0
LINE
  8
_1-3_画層1
  6
CONTINUOUS
 62
    7
 10
46434.125146368417
 20
8932.4972463707909
 11
46439.42514636842
 21
8931.0972463707913
  0
LINE
  8
_1-3_画層1
  6
CONTINUOUS
 62
    7
 10
46439.42514636842
 20
8931.0972463707913
 11
46444.92514636842
 21
8929.7972463707902
  0
LINE
  8
_1-3_画層1
  6
CONTINUOUS
 62
    7
 10
46444.92514636842
 20
8929.7972463707902
 11
46450.525146368418
 21
8928.6972463707898
  0
LINE
  8
_1-3_画層1
  6
CONTINUOUS
 62
    7
 10
46450.525146368418
 20
8928.6972463707898
 11
46456.125146368417
 21
8927.7972463707902
  0
LINE
  8
_1-3_画層1
  6
CONTINUOUS
 62
    7
 10
46456.125146368417
 20
8927.7972463707902
 11
46461.825146368421
 21
8927.0972463707913
  0
LINE
  8
_1-3_画層1
  6
CONTINUOUS
 62
    7
 10
46461.825146368421
 20
8927.0972463707913
 11
46467.625146368417
 21
8926.4972463707909
  0
LINE
  8
_1-3_画層1
  6
CONTINUOUS
 62
    7
 10
46467.625146368417
 20
8926.4972463707909
 11
46473.42514636842
 21
8926.0972463707913
  0
LINE
  8
_1-3_画層1
  6
CONTINUOUS
 62
    7
 10
46473.42514636842
 20
8926.0972463707913
 11
46479.325146368421
 21
8925.7972463707902
  0
LINE
  8
_1-3_画層1
  6
CONTINUOUS
 62
    7
 10
46479.325146368421
 20
8925.7972463707902
 11
46485.125146368424
 21
8925.6972463707898
  0
LINE
  8
_1-3_画層1
  6
CONTINUOUS
 62
    7
 10
46485.125146368424
 20
8925.6972463707898
 11
46491.025146368418
 21
8925.7972463707902
  0
LINE
  8
_1-3_画層1
  6
CONTINUOUS
 62
    7
 10
46491.025146368418
 20
8925.7972463707902
 11
46496.92514636842
 21
8926.0972463707913
  0
LINE
  8
_1-3_画層1
  6
CONTINUOUS
 62
    7
 10
46496.92514636842
 20
8926.0972463707913
 11
46502.725146368422
 21
8926.4972463707909
  0
LINE
  8
_1-3_画層1
  6
CONTINUOUS
 62
    7
 10
46502.725146368422
 20
8926.4972463707909
 11
46508.525146368418
 21
8927.0972463707913
  0
LINE
  8
_1-3_画層1
  6
CONTINUOUS
 62
    7
 10
46508.525146368418
 20
8927.0972463707913
 11
46514.225146368422
 21
8927.7972463707902
  0
LINE
  8
_1-3_画層1
  6
CONTINUOUS
 62
    7
 10
46514.225146368422
 20
8927.7972463707902
 11
46519.825146368421
 21
8928.6972463707898
  0
LINE
  8
_1-3_画層1
  6
CONTINUOUS
 62
    7
 10
46519.825146368421
 20
8928.6972463707898
 11
46525.42514636842
 21
8929.7972463707902
  0
LINE
  8
_1-3_画層1
  6
CONTINUOUS
 62
    7
 10
46525.42514636842
 20
8929.7972463707902
 11
46530.92514636842
 21
8931.0972463707913
  0
LINE
  8
_1-3_画層1
  6
CONTINUOUS
 62
    7
 10
46530.92514636842
 20
8931.0972463707913
 11
46536.225146368422
 21
8932.4972463707909
  0
LINE
  8
_1-3_画層1
  6
CONTINUOUS
 62
    7
 10
46536.225146368422
 20
8932.4972463707909
 11
46541.525146368418
 21
8933.9972463707909
  0
LINE
  8
_1-3_画層1
  6
CONTINUOUS
 62
    7
 10
46541.525146368418
 20
8933.9972463707909
 11
46546.625146368417
 21
8935.6972463707898
  0
LINE
  8
_1-3_画層1
  6
CONTINUOUS
 62
    7
 10
46546.625146368417
 20
8935.6972463707898
 11
46551.525146368418
 21
8937.4972463707909
  0
LINE
  8
_1-3_画層1
  6
CONTINUOUS
 62
    7
 10
46551.525146368418
 20
8937.4972463707909
 11
46556.325146368421
 21
8939.4972463707909
  0
LINE
  8
_1-3_画層1
  6
CONTINUOUS
 62
    7
 10
46556.325146368421
 20
8939.4972463707909
 11
46560.92514636842
 21
8941.6972463707898
  0
LINE
  8
_1-3_画層1
  6
CONTINUOUS
 62
    7
 10
46560.92514636842
 20
8941.6972463707898
 11
46565.42514636842
 21
8943.8972463707905
  0
LINE
  8
_1-3_画層1
  6
CONTINUOUS
 62
    7
 10
46565.42514636842
 20
8943.8972463707905
 11
46569.625146368417
 21
8946.2972463707902
  0
LINE
  8
_1-3_画層1
  6
CONTINUOUS
 62
    7
 10
46569.625146368417
 20
8946.2972463707902
 11
46573.725146368422
 21
8948.7972463707902
  0
LINE
  8
_1-3_画層1
  6
CONTINUOUS
 62
    7
 10
46573.725146368422
 20
8948.7972463707902
 11
46577.525146368418
 21
8951.3972463707905
  0
LINE
  8
_1-3_画層1
  6
CONTINUOUS
 62
    7
 10
46577.525146368418
 20
8951.3972463707905
 11
46581.125146368417
 21
8954.0972463707913
  0
LINE
  8
_1-3_画層1
  6
CONTINUOUS
 62
    7
 10
46581.125146368417
 20
8954.0972463707913
 11
46584.525146368418
 21
8956.8972463707905
  0
LINE
  8
_1-3_画層1
  6
CONTINUOUS
 62
    7
 10
46584.525146368418
 20
8956.8972463707905
 11
46587.625146368417
 21
8959.7972463707902
  0
LINE
  8
_1-3_画層1
  6
CONTINUOUS
 62
    7
 10
46587.625146368417
 20
8959.7972463707902
 11
46590.525146368418
 21
8962.7972463707902
  0
LINE
  8
_1-3_画層1
  6
CONTINUOUS
 62
    7
 10
46590.525146368418
 20
8962.7972463707902
 11
46593.125146368417
 21
8965.8972463707905
  0
LINE
  8
_1-3_画層1
  6
CONTINUOUS
 62
    7
 10
46593.125146368417
 20
8965.8972463707905
 11
46595.525146368418
 21
8969.0972463707913
  0
LINE
  8
_1-3_画層1
  6
CONTINUOUS
 62
    7
 10
46595.525146368418
 20
8969.0972463707913
 11
46597.625146368424
 21
8972.2972463707902
  0
LINE
  8
_1-3_画層1
  6
CONTINUOUS
 62
    7
 10
46597.625146368424
 20
8972.2972463707902
 11
46599.525146368418
 21
8975.5972463707913
  0
LINE
  8
_1-3_画層1
  6
CONTINUOUS
 62
    7
 10
46599.525146368418
 20
8975.5972463707913
 11
46601.025146368418
 21
8978.8972463707905
  0
LINE
  8
_1-3_画層1
  6
CONTINUOUS
 62
    7
 10
46601.025146368418
 20
8978.8972463707905
 11
46602.325146368421
 21
8982.1972463707898
  0
LINE
  8
_1-3_画層1
  6
CONTINUOUS
 62
    7
 10
46602.325146368421
 20
8982.1972463707898
 11
46603.325146368421
 21
8985.5972463707913
  0
LINE
  8
_1-3_画層1
  6
CONTINUOUS
 62
    7
 10
46603.325146368421
 20
8985.5972463707913
 11
46604.025146368418
 21
8989.0972463707913
  0
LINE
  8
_1-3_画層1
  6
CONTINUOUS
 62
    7
 10
46604.025146368418
 20
8989.0972463707913
 11
46604.525146368418
 21
8992.4972463707909
  0
LINE
  8
_1-3_画層1
  6
CONTINUOUS
 62
    7
 10
46604.525146368418
 20
8992.4972463707909
 11
46604.625146368417
 21
8995.8972463707905
  0
LINE
  8
_1-3_画層1
  6
CONTINUOUS
 62
    7
 10
13955.12514636842
 20
6923.4972463707891
 11
13955.02514636842
 21
6926.8972463707914
  0
LINE
  8
_1-3_画層1
  6
CONTINUOUS
 62
    7
 10
13955.02514636842
 20
6926.8972463707914
 11
13954.52514636842
 21
6930.2972463707929
  0
LINE
  8
_1-3_画層1
  6
CONTINUOUS
 62
    7
 10
13954.52514636842
 20
6930.2972463707929
 11
13953.825146368419
 21
6933.7972463707929
  0
LINE
  8
_1-3_画層1
  6
CONTINUOUS
 62
    7
 10
13953.825146368419
 20
6933.7972463707929
 11
13952.825146368419
 21
6937.1972463707889
  0
LINE
  8
_1-3_画層1
  6
CONTINUOUS
 62
    7
 10
13952.825146368419
 20
6937.1972463707889
 11
13951.52514636842
 21
6940.4972463707882
  0
LINE
  8
_1-3_画層1
  6
CONTINUOUS
 62
    7
 10
13951.52514636842
 20
6940.4972463707882
 11
13950.025146368422
 21
6943.797246370792
  0
LINE
  8
_1-3_画層1
  6
CONTINUOUS
 62
    7
 10
13950.025146368422
 20
6943.797246370792
 11
13948.12514636842
 21
6947.0972463707913
  0
LINE
  8
_1-3_画層1
  6
CONTINUOUS
 62
    7
 10
13948.12514636842
 20
6947.0972463707913
 11
13946.025146368418
 21
6950.297246370792
  0
LINE
  8
_1-3_画層1
  6
CONTINUOUS
 62
    7
 10
13946.025146368418
 20
6950.297246370792
 11
13943.625146368422
 21
6953.49724637079
  0
LINE
  8
_1-3_画層1
  6
CONTINUOUS
 62
    7
 10
13943.625146368422
 20
6953.49724637079
 11
13941.02514636842
 21
6956.5972463707913
  0
LINE
  8
_1-3_画層1
  6
CONTINUOUS
 62
    7
 10
13941.02514636842
 20
6956.5972463707913
 11
13938.12514636842
 21
6959.5972463707913
  0
LINE
  8
_1-3_画層1
  6
CONTINUOUS
 62
    7
 10
13938.12514636842
 20
6959.5972463707913
 11
13935.02514636842
 21
6962.4972463707873
  0
LINE
  8
_1-3_画層1
  6
CONTINUOUS
 62
    7
 10
13935.02514636842
 20
6962.4972463707873
 11
13931.62514636842
 21
6965.2972463707929
  0
LINE
  8
_1-3_画層1
  6
CONTINUOUS
 62
    7
 10
13931.62514636842
 20
6965.2972463707929
 11
13928.025146368422
 21
6967.9972463707882
  0
LINE
  8
_1-3_画層1
  6
CONTINUOUS
 62
    7
 10
13928.025146368422
 20
6967.9972463707882
 11
13924.225146368421
 21
6970.5972463707922
  0
LINE
  8
_1-3_画層1
  6
CONTINUOUS
 62
    7
 10
13924.225146368421
 20
6970.5972463707922
 11
13920.12514636842
 21
6973.0972463707903
  0
LINE
  8
_1-3_画層1
  6
CONTINUOUS
 62
    7
 10
13920.12514636842
 20
6973.0972463707903
 11
13915.92514636842
 21
6975.49724637079
  0
LINE
  8
_1-3_画層1
  6
CONTINUOUS
 62
    7
 10
13915.92514636842
 20
6975.49724637079
 11
13911.425146368418
 21
6977.6972463707889
  0
LINE
  8
_1-3_画層1
  6
CONTINUOUS
 62
    7
 10
13911.425146368418
 20
6977.6972463707889
 11
13906.825146368419
 21
6979.8972463707914
  0
LINE
  8
_1-3_画層1
  6
CONTINUOUS
 62
    7
 10
13906.825146368419
 20
6979.8972463707914
 11
13902.025146368418
 21
6981.797246370792
  0
LINE
  8
_1-3_画層1
  6
CONTINUOUS
 62
    7
 10
13902.025146368418
 20
6981.797246370792
 11
13897.12514636842
 21
6983.6972463707898
  0
LINE
  8
_1-3_画層1
  6
CONTINUOUS
 62
    7
 10
13897.12514636842
 20
6983.6972463707898
 11
13892.02514636842
 21
6985.3972463707923
  0
LINE
  8
_1-3_画層1
  6
CONTINUOUS
 62
    7
 10
13892.02514636842
 20
6985.3972463707923
 11
13886.725146368421
 21
6986.8972463707905
  0
LINE
  8
_1-3_画層1
  6
CONTINUOUS
 62
    7
 10
13886.725146368421
 20
6986.8972463707905
 11
13881.42514636842
 21
6988.297246370792
  0
LINE
  8
_1-3_画層1
  6
CONTINUOUS
 62
    7
 10
13881.42514636842
 20
6988.297246370792
 11
13875.92514636842
 21
6989.5972463707922
  0
LINE
  8
_1-3_画層1
  6
CONTINUOUS
 62
    7
 10
13875.92514636842
 20
6989.5972463707922
 11
13870.325146368417
 21
6990.6972463707889
  0
LINE
  8
_1-3_画層1
  6
CONTINUOUS
 62
    7
 10
13870.325146368417
 20
6990.6972463707889
 11
13864.725146368421
 21
6991.5972463707903
  0
LINE
  8
_1-3_画層1
  6
CONTINUOUS
 62
    7
 10
13864.725146368421
 20
6991.5972463707903
 11
13858.925146368421
 21
6992.2972463707911
  0
LINE
  8
_1-3_画層1
  6
CONTINUOUS
 62
    7
 10
13858.925146368421
 20
6992.2972463707911
 11
13853.225146368419
 21
6992.8972463707905
  0
LINE
  8
_1-3_画層1
  6
CONTINUOUS
 62
    7
 10
13853.225146368419
 20
6992.8972463707905
 11
13847.325146368419
 21
6993.2972463707929
  0
LINE
  8
_1-3_画層1
  6
CONTINUOUS
 62
    7
 10
13847.325146368419
 20
6993.2972463707929
 11
13841.52514636842
 21
6993.5972463707913
  0
LINE
  8
_1-3_画層1
  6
CONTINUOUS
 62
    7
 10
13841.52514636842
 20
6993.5972463707913
 11
13835.62514636842
 21
6993.6972463707889
  0
LINE
  8
_1-3_画層1
  6
CONTINUOUS
 62
    7
 10
13835.62514636842
 20
6993.6972463707889
 11
13829.825146368417
 21
6993.5972463707913
  0
LINE
  8
_1-3_画層1
  6
CONTINUOUS
 62
    7
 10
13829.825146368417
 20
6993.5972463707913
 11
13823.925146368418
 21
6993.2972463707929
  0
LINE
  8
_1-3_画層1
  6
CONTINUOUS
 62
    7
 10
13823.925146368418
 20
6993.2972463707929
 11
13818.125146368418
 21
6992.8972463707905
  0
LINE
  8
_1-3_画層1
  6
CONTINUOUS
 62
    7
 10
13818.125146368418
 20
6992.8972463707905
 11
13812.325146368419
 21
6992.2972463707911
  0
LINE
  8
_1-3_画層1
  6
CONTINUOUS
 62
    7
 10
13812.325146368419
 20
6992.2972463707911
 11
13806.62514636842
 21
6991.5972463707903
  0
LINE
  8
_1-3_画層1
  6
CONTINUOUS
 62
    7
 10
13806.62514636842
 20
6991.5972463707903
 11
13801.02514636842
 21
6990.6972463707889
  0
LINE
  8
_1-3_画層1
  6
CONTINUOUS
 62
    7
 10
13801.02514636842
 20
6990.6972463707889
 11
13795.42514636842
 21
6989.5972463707922
  0
LINE
  8
_1-3_画層1
  6
CONTINUOUS
 62
    7
 10
13795.42514636842
 20
6989.5972463707922
 11
13789.925146368421
 21
6988.297246370792
  0
LINE
  8
_1-3_画層1
  6
CONTINUOUS
 62
    7
 10
13789.925146368421
 20
6988.297246370792
 11
13784.62514636842
 21
6986.8972463707905
  0
LINE
  8
_1-3_画層1
  6
CONTINUOUS
 62
    7
 10
13784.62514636842
 20
6986.8972463707905
 11
13779.325146368419
 21
6985.3972463707923
  0
LINE
  8
_1-3_画層1
  6
CONTINUOUS
 62
    7
 10
13779.325146368419
 20
6985.3972463707923
 11
13774.225146368421
 21
6983.6972463707898
  0
LINE
  8
_1-3_画層1
  6
CONTINUOUS
 62
    7
 10
13774.225146368421
 20
6983.6972463707898
 11
13769.325146368419
 21
6981.797246370792
  0
LINE
  8
_1-3_画層1
  6
CONTINUOUS
 62
    7
 10
13769.325146368419
 20
6981.797246370792
 11
13764.525146368418
 21
6979.8972463707914
  0
LINE
  8
_1-3_画層1
  6
CONTINUOUS
 62
    7
 10
13764.525146368418
 20
6979.8972463707914
 11
13759.825146368419
 21
6977.6972463707889
  0
LINE
  8
_1-3_画層1
  6
CONTINUOUS
 62
    7
 10
13759.825146368419
 20
6977.6972463707889
 11
13755.425146368418
 21
6975.49724637079
  0
LINE
  8
_1-3_画層1
  6
CONTINUOUS
 62
    7
 10
13755.425146368418
 20
6975.49724637079
 11
13751.225146368419
 21
6973.0972463707903
  0
LINE
  8
_1-3_画層1
  6
CONTINUOUS
 62
    7
 10
13751.225146368419
 20
6973.0972463707903
 11
13747.12514636842
 21
6970.5972463707922
  0
LINE
  8
_1-3_画層1
  6
CONTINUOUS
 62
    7
 10
13747.12514636842
 20
6970.5972463707922
 11
13743.325146368421
 21
6967.9972463707882
  0
LINE
  8
_1-3_画層1
  6
CONTINUOUS
 62
    7
 10
13743.325146368421
 20
6967.9972463707882
 11
13739.725146368421
 21
6965.2972463707929
  0
LINE
  8
_1-3_画層1
  6
CONTINUOUS
 62
    7
 10
13739.725146368421
 20
6965.2972463707929
 11
13736.325146368417
 21
6962.4972463707873
  0
LINE
  8
_1-3_画層1
  6
CONTINUOUS
 62
    7
 10
13736.325146368417
 20
6962.4972463707873
 11
13733.225146368421
 21
6959.5972463707913
  0
LINE
  8
_1-3_画層1
  6
CONTINUOUS
 62
    7
 10
13733.225146368421
 20
6959.5972463707913
 11
13730.325146368421
 21
6956.5972463707913
  0
LINE
  8
_1-3_画層1
  6
CONTINUOUS
 62
    7
 10
13730.325146368421
 20
6956.5972463707913
 11
13727.625146368418
 21
6953.49724637079
  0
LINE
  8
_1-3_画層1
  6
CONTINUOUS
 62
    7
 10
13727.625146368418
 20
6953.49724637079
 11
13725.325146368419
 21
6950.297246370792
  0
LINE
  8
_1-3_画層1
  6
CONTINUOUS
 62
    7
 10
13725.325146368419
 20
6950.297246370792
 11
13723.225146368419
 21
6947.0972463707913
  0
LINE
  8
_1-3_画層1
  6
CONTINUOUS
 62
    7
 10
13723.225146368419
 20
6947.0972463707913
 11
13721.325146368421
 21
6943.797246370792
  0
LINE
  8
_1-3_画層1
  6
CONTINUOUS
 62
    7
 10
13721.325146368421
 20
6943.797246370792
 11
13719.725146368419
 21
6940.4972463707882
  0
LINE
  8
_1-3_画層1
  6
CONTINUOUS
 62
    7
 10
13719.725146368419
 20
6940.4972463707882
 11
13718.525146368422
 21
6937.1972463707889
  0
LINE
  8
_1-3_画層1
  6
CONTINUOUS
 62
    7
 10
13718.525146368422
 20
6937.1972463707889
 11
13717.52514636842
 21
6933.7972463707929
  0
LINE
  8
_1-3_画層1
  6
CONTINUOUS
 62
    7
 10
13717.52514636842
 20
6933.7972463707929
 11
13716.725146368419
 21
6930.2972463707929
  0
LINE
  8
_1-3_画層1
  6
CONTINUOUS
 62
    7
 10
13716.725146368419
 20
6930.2972463707929
 11
13716.325146368419
 21
6926.8972463707914
  0
LINE
  8
_1-3_画層1
  6
CONTINUOUS
 62
    7
 10
13716.325146368419
 20
6926.8972463707914
 11
13716.225146368419
 21
6923.4972463707891
  0
LINE
  8
_1-3_画層1
  6
CONTINUOUS
 62
    7
 10
13716.225146368419
 20
6923.4972463707891
 11
13716.325146368419
 21
6919.9972463707891
  0
LINE
  8
_1-3_画層1
  6
CONTINUOUS
 62
    7
 10
13716.325146368419
 20
6919.9972463707891
 11
13716.725146368419
 21
6916.5972463707903
  0
LINE
  8
_1-3_画層1
  6
CONTINUOUS
 62
    7
 10
13716.725146368419
 20
6916.5972463707903
 11
13717.52514636842
 21
6913.0972463707903
  0
LINE
  8
_1-3_画層1
  6
CONTINUOUS
 62
    7
 10
13717.52514636842
 20
6913.0972463707903
 11
13718.525146368422
 21
6909.6972463707889
  0
LINE
  8
_1-3_画層1
  6
CONTINUOUS
 62
    7
 10
13718.525146368422
 20
6909.6972463707889
 11
13719.725146368419
 21
6906.3972463707896
  0
LINE
  8
_1-3_画層1
  6
CONTINUOUS
 62
    7
 10
13719.725146368419
 20
6906.3972463707896
 11
13721.325146368421
 21
6903.0972463707913
  0
LINE
  8
_1-3_画層1
  6
CONTINUOUS
 62
    7
 10
13721.325146368421
 20
6903.0972463707913
 11
13723.225146368419
 21
6899.797246370792
  0
LINE
  8
_1-3_画層1
  6
CONTINUOUS
 62
    7
 10
13723.225146368419
 20
6899.797246370792
 11
13725.325146368419
 21
6896.5972463707913
  0
LINE
  8
_1-3_画層1
  6
CONTINUOUS
 62
    7
 10
13725.325146368419
 20
6896.5972463707913
 11
13727.625146368418
 21
6893.3972463707905
  0
LINE
  8
_1-3_画層1
  6
CONTINUOUS
 62
    7
 10
13727.625146368418
 20
6893.3972463707905
 11
13730.325146368421
 21
6890.2972463707929
  0
LINE
  8
_1-3_画層1
  6
CONTINUOUS
 62
    7
 10
13730.325146368421
 20
6890.2972463707929
 11
13733.225146368421
 21
6887.297246370792
  0
LINE
  8
_1-3_画層1
  6
CONTINUOUS
 62
    7
 10
13733.225146368421
 20
6887.297246370792
 11
13736.325146368417
 21
6884.3972463707896
  0
LINE
  8
_1-3_画層1
  6
CONTINUOUS
 62
    7
 10
13736.325146368417
 20
6884.3972463707896
 11
13739.725146368421
 21
6881.5972463707913
  0
LINE
  8
_1-3_画層1
  6
CONTINUOUS
 62
    7
 10
13739.725146368421
 20
6881.5972463707913
 11
13743.325146368421
 21
6878.8972463707896
  0
LINE
  8
_1-3_画層1
  6
CONTINUOUS
 62
    7
 10
13743.325146368421
 20
6878.8972463707896
 11
13747.12514636842
 21
6876.2972463707911
  0
LINE
  8
_1-3_画層1
  6
CONTINUOUS
 62
    7
 10
13747.12514636842
 20
6876.2972463707911
 11
13751.225146368419
 21
6873.7972463707938
  0
LINE
  8
_1-3_画層1
  6
CONTINUOUS
 62
    7
 10
13751.225146368419
 20
6873.7972463707938
 11
13755.425146368418
 21
6871.3972463707905
  0
LINE
  8
_1-3_画層1
  6
CONTINUOUS
 62
    7
 10
13755.425146368418
 20
6871.3972463707905
 11
13759.825146368419
 21
6869.197246370788
  0
LINE
  8
_1-3_画層1
  6
CONTINUOUS
 62
    7
 10
13759.825146368419
 20
6869.197246370788
 11
13764.525146368418
 21
6866.9972463707891
  0
LINE
  8
_1-3_画層1
  6
CONTINUOUS
 62
    7
 10
13764.525146368418
 20
6866.9972463707891
 11
13769.325146368419
 21
6865.0972463707913
  0
LINE
  8
_1-3_画層1
  6
CONTINUOUS
 62
    7
 10
13769.325146368419
 20
6865.0972463707913
 11
13774.225146368421
 21
6863.1972463707907
  0
LINE
  8
_1-3_画層1
  6
CONTINUOUS
 62
    7
 10
13774.225146368421
 20
6863.1972463707907
 11
13779.325146368419
 21
6861.4972463707891
  0
LINE
  8
_1-3_画層1
  6
CONTINUOUS
 62
    7
 10
13779.325146368419
 20
6861.4972463707891
 11
13784.62514636842
 21
6859.99724637079
  0
LINE
  8
_1-3_画層1
  6
CONTINUOUS
 62
    7
 10
13784.62514636842
 20
6859.99724637079
 11
13789.925146368421
 21
6858.5972463707922
  0
LINE
  8
_1-3_画層1
  6
CONTINUOUS
 62
    7
 10
13789.925146368421
 20
6858.5972463707922
 11
13795.42514636842
 21
6857.2972463707911
  0
LINE
  8
_1-3_画層1
  6
CONTINUOUS
 62
    7
 10
13795.42514636842
 20
6857.2972463707911
 11
13801.02514636842
 21
6856.1972463707889
  0
LINE
  8
_1-3_画層1
  6
CONTINUOUS
 62
    7
 10
13801.02514636842
 20
6856.1972463707889
 11
13806.62514636842
 21
6855.2972463707929
  0
LINE
  8
_1-3_画層1
  6
CONTINUOUS
 62
    7
 10
13806.62514636842
 20
6855.2972463707929
 11
13812.325146368419
 21
6854.5972463707931
  0
LINE
  8
_1-3_画層1
  6
CONTINUOUS
 62
    7
 10
13812.325146368419
 20
6854.5972463707931
 11
13818.125146368418
 21
6853.99724637079
  0
LINE
  8
_1-3_画層1
  6
CONTINUOUS
 62
    7
 10
13818.125146368418
 20
6853.99724637079
 11
13823.925146368418
 21
6853.5972463707903
  0
LINE
  8
_1-3_画層1
  6
CONTINUOUS
 62
    7
 10
13823.925146368418
 20
6853.5972463707903
 11
13829.825146368417
 21
6853.297246370792
  0
LINE
  8
_1-3_画層1
  6
CONTINUOUS
 62
    7
 10
13829.825146368417
 20
6853.297246370792
 11
13835.62514636842
 21
6853.1972463707889
  0
LINE
  8
_1-3_画層1
  6
CONTINUOUS
 62
    7
 10
13835.62514636842
 20
6853.1972463707889
 11
13841.52514636842
 21
6853.297246370792
  0
LINE
  8
_1-3_画層1
  6
CONTINUOUS
 62
    7
 10
13841.52514636842
 20
6853.297246370792
 11
13847.325146368419
 21
6853.5972463707903
  0
LINE
  8
_1-3_画層1
  6
CONTINUOUS
 62
    7
 10
13847.325146368419
 20
6853.5972463707903
 11
13853.225146368419
 21
6853.99724637079
  0
LINE
  8
_1-3_画層1
  6
CONTINUOUS
 62
    7
 10
13853.225146368419
 20
6853.99724637079
 11
13858.925146368421
 21
6854.5972463707931
  0
LINE
  8
_1-3_画層1
  6
CONTINUOUS
 62
    7
 10
13858.925146368421
 20
6854.5972463707931
 11
13864.725146368421
 21
6855.2972463707929
  0
LINE
  8
_1-3_画層1
  6
CONTINUOUS
 62
    7
 10
13864.725146368421
 20
6855.2972463707929
 11
13870.325146368417
 21
6856.1972463707889
  0
LINE
  8
_1-3_画層1
  6
CONTINUOUS
 62
    7
 10
13870.325146368417
 20
6856.1972463707889
 11
13875.92514636842
 21
6857.2972463707911
  0
LINE
  8
_1-3_画層1
  6
CONTINUOUS
 62
    7
 10
13875.92514636842
 20
6857.2972463707911
 11
13881.42514636842
 21
6858.5972463707922
  0
LINE
  8
_1-3_画層1
  6
CONTINUOUS
 62
    7
 10
13881.42514636842
 20
6858.5972463707922
 11
13886.725146368421
 21
6859.99724637079
  0
LINE
  8
_1-3_画層1
  6
CONTINUOUS
 62
    7
 10
13886.725146368421
 20
6859.99724637079
 11
13892.02514636842
 21
6861.4972463707891
  0
LINE
  8
_1-3_画層1
  6
CONTINUOUS
 62
    7
 10
13892.02514636842
 20
6861.4972463707891
 11
13897.12514636842
 21
6863.1972463707907
  0
LINE
  8
_1-3_画層1
  6
CONTINUOUS
 62
    7
 10
13897.12514636842
 20
6863.1972463707907
 11
13902.025146368418
 21
6865.0972463707913
  0
LINE
  8
_1-3_画層1
  6
CONTINUOUS
 62
    7
 10
13902.025146368418
 20
6865.0972463707913
 11
13906.825146368419
 21
6866.9972463707891
  0
LINE
  8
_1-3_画層1
  6
CONTINUOUS
 62
    7
 10
13906.825146368419
 20
6866.9972463707891
 11
13911.425146368418
 21
6869.197246370788
  0
LINE
  8
_1-3_画層1
  6
CONTINUOUS
 62
    7
 10
13911.425146368418
 20
6869.197246370788
 11
13915.92514636842
 21
6871.3972463707905
  0
LINE
  8
_1-3_画層1
  6
CONTINUOUS
 62
    7
 10
13915.92514636842
 20
6871.3972463707905
 11
13920.12514636842
 21
6873.7972463707938
  0
LINE
  8
_1-3_画層1
  6
CONTINUOUS
 62
    7
 10
13920.12514636842
 20
6873.7972463707938
 11
13924.225146368421
 21
6876.2972463707911
  0
LINE
  8
_1-3_画層1
  6
CONTINUOUS
 62
    7
 10
13924.225146368421
 20
6876.2972463707911
 11
13928.025146368422
 21
6878.8972463707896
  0
LINE
  8
_1-3_画層1
  6
CONTINUOUS
 62
    7
 10
13928.025146368422
 20
6878.8972463707896
 11
13931.62514636842
 21
6881.5972463707913
  0
LINE
  8
_1-3_画層1
  6
CONTINUOUS
 62
    7
 10
13931.62514636842
 20
6881.5972463707913
 11
13935.02514636842
 21
6884.3972463707896
  0
LINE
  8
_1-3_画層1
  6
CONTINUOUS
 62
    7
 10
13935.02514636842
 20
6884.3972463707896
 11
13938.12514636842
 21
6887.297246370792
  0
LINE
  8
_1-3_画層1
  6
CONTINUOUS
 62
    7
 10
13938.12514636842
 20
6887.297246370792
 11
13941.02514636842
 21
6890.2972463707929
  0
LINE
  8
_1-3_画層1
  6
CONTINUOUS
 62
    7
 10
13941.02514636842
 20
6890.2972463707929
 11
13943.625146368422
 21
6893.3972463707905
  0
LINE
  8
_1-3_画層1
  6
CONTINUOUS
 62
    7
 10
13943.625146368422
 20
6893.3972463707905
 11
13946.025146368418
 21
6896.5972463707913
  0
LINE
  8
_1-3_画層1
  6
CONTINUOUS
 62
    7
 10
13946.025146368418
 20
6896.5972463707913
 11
13948.12514636842
 21
6899.797246370792
  0
LINE
  8
_1-3_画層1
  6
CONTINUOUS
 62
    7
 10
13948.12514636842
 20
6899.797246370792
 11
13950.025146368422
 21
6903.0972463707913
  0
LINE
  8
_1-3_画層1
  6
CONTINUOUS
 62
    7
 10
13950.025146368422
 20
6903.0972463707913
 11
13951.52514636842
 21
6906.3972463707896
  0
LINE
  8
_1-3_画層1
  6
CONTINUOUS
 62
    7
 10
13951.52514636842
 20
6906.3972463707896
 11
13952.825146368419
 21
6909.6972463707889
  0
LINE
  8
_1-3_画層1
  6
CONTINUOUS
 62
    7
 10
13952.825146368419
 20
6909.6972463707889
 11
13953.825146368419
 21
6913.0972463707903
  0
LINE
  8
_1-3_画層1
  6
CONTINUOUS
 62
    7
 10
13953.825146368419
 20
6913.0972463707903
 11
13954.52514636842
 21
6916.5972463707903
  0
LINE
  8
_1-3_画層1
  6
CONTINUOUS
 62
    7
 10
13954.52514636842
 20
6916.5972463707903
 11
13955.02514636842
 21
6919.9972463707891
  0
LINE
  8
_1-3_画層1
  6
CONTINUOUS
 62
    7
 10
13955.02514636842
 20
6919.9972463707891
 11
13955.12514636842
 21
6923.4972463707891
  0
LINE
  8
_1-3_画層1
  6
CONTINUOUS
 62
    7
 10
13920.325146368417
 20
7796.9972463707909
 11
13920.225146368417
 21
7800.3972463707896
  0
LINE
  8
_1-3_画層1
  6
CONTINUOUS
 62
    7
 10
13920.225146368417
 20
7800.3972463707896
 11
13919.825146368419
 21
7803.7972463707883
  0
LINE
  8
_1-3_画層1
  6
CONTINUOUS
 62
    7
 10
13919.825146368419
 20
7803.7972463707883
 11
13919.02514636842
 21
7807.2972463707911
  0
LINE
  8
_1-3_画層1
  6
CONTINUOUS
 62
    7
 10
13919.02514636842
 20
7807.2972463707911
 11
13918.025146368418
 21
7810.6972463707907
  0
LINE
  8
_1-3_画層1
  6
CONTINUOUS
 62
    7
 10
13918.025146368418
 20
7810.6972463707907
 11
13916.725146368419
 21
7813.9972463707918
  0
LINE
  8
_1-3_画層1
  6
CONTINUOUS
 62
    7
 10
13916.725146368419
 20
7813.9972463707918
 11
13915.225146368419
 21
7817.2972463707911
  0
LINE
  8
_1-3_画層1
  6
CONTINUOUS
 62
    7
 10
13915.225146368419
 20
7817.2972463707911
 11
13913.325146368419
 21
7820.5972463707922
  0
LINE
  8
_1-3_画層1
  6
CONTINUOUS
 62
    7
 10
13913.325146368419
 20
7820.5972463707922
 11
13911.225146368417
 21
7823.7972463707902
  0
LINE
  8
_1-3_画層1
  6
CONTINUOUS
 62
    7
 10
13911.225146368417
 20
7823.7972463707902
 11
13908.925146368421
 21
7826.9972463707918
  0
LINE
  8
_1-3_画層1
  6
CONTINUOUS
 62
    7
 10
13908.925146368421
 20
7826.9972463707918
 11
13906.225146368419
 21
7830.0972463707922
  0
LINE
  8
_1-3_画層1
  6
CONTINUOUS
 62
    7
 10
13906.225146368419
 20
7830.0972463707922
 11
13903.325146368419
 21
7833.0972463707922
  0
LINE
  8
_1-3_画層1
  6
CONTINUOUS
 62
    7
 10
13903.325146368419
 20
7833.0972463707922
 11
13900.225146368419
 21
7835.9972463707918
  0
LINE
  8
_1-3_画層1
  6
CONTINUOUS
 62
    7
 10
13900.225146368419
 20
7835.9972463707918
 11
13896.825146368419
 21
7838.7972463707911
  0
LINE
  8
_1-3_画層1
  6
CONTINUOUS
 62
    7
 10
13896.825146368419
 20
7838.7972463707911
 11
13893.225146368419
 21
7841.49724637079
  0
LINE
  8
_1-3_画層1
  6
CONTINUOUS
 62
    7
 10
13893.225146368419
 20
7841.49724637079
 11
13889.425146368418
 21
7844.0972463707913
  0
LINE
  8
_1-3_画層1
  6
CONTINUOUS
 62
    7
 10
13889.425146368418
 20
7844.0972463707913
 11
13885.325146368419
 21
7846.5972463707913
  0
LINE
  8
_1-3_画層1
  6
CONTINUOUS
 62
    7
 10
13885.325146368419
 20
7846.5972463707913
 11
13881.125146368422
 21
7848.9972463707918
  0
LINE
  8
_1-3_画層1
  6
CONTINUOUS
 62
    7
 10
13881.125146368422
 20
7848.9972463707918
 11
13876.725146368417
 21
7851.1972463707907
  0
LINE
  8
_1-3_画層1
  6
CONTINUOUS
 62
    7
 10
13876.725146368417
 20
7851.1972463707907
 11
13872.02514636842
 21
7853.3972463707896
  0
LINE
  8
_1-3_画層1
  6
CONTINUOUS
 62
    7
 10
13872.02514636842
 20
7853.3972463707896
 11
13867.225146368417
 21
7855.3972463707905
  0
LINE
  8
_1-3_画層1
  6
CONTINUOUS
 62
    7
 10
13867.225146368417
 20
7855.3972463707905
 11
13862.325146368419
 21
7857.1972463707907
  0
LINE
  8
_1-3_画層1
  6
CONTINUOUS
 62
    7
 10
13862.325146368419
 20
7857.1972463707907
 11
13857.225146368419
 21
7858.8972463707905
  0
LINE
  8
_1-3_画層1
  6
CONTINUOUS
 62
    7
 10
13857.225146368419
 20
7858.8972463707905
 11
13851.925146368418
 21
7860.3972463707923
  0
LINE
  8
_1-3_画層1
  6
CONTINUOUS
 62
    7
 10
13851.925146368418
 20
7860.3972463707923
 11
13846.625146368422
 21
7861.7972463707902
  0
LINE
  8
_1-3_画層1
  6
CONTINUOUS
 62
    7
 10
13846.625146368422
 20
7861.7972463707902
 11
13841.12514636842
 21
7863.0972463707903
  0
LINE
  8
_1-3_画層1
  6
CONTINUOUS
 62
    7
 10
13841.12514636842
 20
7863.0972463707903
 11
13835.52514636842
 21
7864.1972463707898
  0
LINE
  8
_1-3_画層1
  6
CONTINUOUS
 62
    7
 10
13835.52514636842
 20
7864.1972463707898
 11
13829.92514636842
 21
7865.0972463707913
  0
LINE
  8
_1-3_画層1
  6
CONTINUOUS
 62
    7
 10
13829.92514636842
 20
7865.0972463707913
 11
13824.225146368421
 21
7865.7972463707893
  0
LINE
  8
_1-3_画層1
  6
CONTINUOUS
 62
    7
 10
13824.225146368421
 20
7865.7972463707893
 11
13818.425146368421
 21
7866.3972463707896
  0
LINE
  8
_1-3_画層1
  6
CONTINUOUS
 62
    7
 10
13818.425146368421
 20
7866.3972463707896
 11
13812.625146368422
 21
7866.8972463707914
  0
LINE
  8
_1-3_画層1
  6
CONTINUOUS
 62
    7
 10
13812.625146368422
 20
7866.8972463707914
 11
13806.725146368419
 21
7867.0972463707931
  0
LINE
  8
_1-3_画層1
  6
CONTINUOUS
 62
    7
 10
13806.725146368419
 20
7867.0972463707931
 11
13800.92514636842
 21
7867.1972463707898
  0
LINE
  8
_1-3_画層1
  6
CONTINUOUS
 62
    7
 10
13800.92514636842
 20
7867.1972463707898
 11
13795.02514636842
 21
7867.0972463707931
  0
LINE
  8
_1-3_画層1
  6
CONTINUOUS
 62
    7
 10
13795.02514636842
 20
7867.0972463707931
 11
13789.225146368417
 21
7866.8972463707914
  0
LINE
  8
_1-3_画層1
  6
CONTINUOUS
 62
    7
 10
13789.225146368417
 20
7866.8972463707914
 11
13783.325146368417
 21
7866.3972463707896
  0
LINE
  8
_1-3_画層1
  6
CONTINUOUS
 62
    7
 10
13783.325146368417
 20
7866.3972463707896
 11
13777.625146368418
 21
7865.7972463707893
  0
LINE
  8
_1-3_画層1
  6
CONTINUOUS
 62
    7
 10
13777.625146368418
 20
7865.7972463707893
 11
13771.825146368419
 21
7865.0972463707913
  0
LINE
  8
_1-3_画層1
  6
CONTINUOUS
 62
    7
 10
13771.825146368419
 20
7865.0972463707913
 11
13766.225146368419
 21
7864.1972463707898
  0
LINE
  8
_1-3_画層1
  6
CONTINUOUS
 62
    7
 10
13766.225146368419
 20
7864.1972463707898
 11
13760.62514636842
 21
7863.0972463707903
  0
LINE
  8
_1-3_画層1
  6
CONTINUOUS
 62
    7
 10
13760.62514636842
 20
7863.0972463707903
 11
13755.12514636842
 21
7861.7972463707902
  0
LINE
  8
_1-3_画層1
  6
CONTINUOUS
 62
    7
 10
13755.12514636842
 20
7861.7972463707902
 11
13749.825146368419
 21
7860.3972463707923
  0
LINE
  8
_1-3_画層1
  6
CONTINUOUS
 62
    7
 10
13749.825146368419
 20
7860.3972463707923
 11
13744.52514636842
 21
7858.8972463707905
  0
LINE
  8
_1-3_画層1
  6
CONTINUOUS
 62
    7
 10
13744.52514636842
 20
7858.8972463707905
 11
13739.425146368418
 21
7857.1972463707907
  0
LINE
  8
_1-3_画層1
  6
CONTINUOUS
 62
    7
 10
13739.425146368418
 20
7857.1972463707907
 11
13734.52514636842
 21
7855.3972463707905
  0
LINE
  8
_1-3_画層1
  6
CONTINUOUS
 62
    7
 10
13734.52514636842
 20
7855.3972463707905
 11
13729.725146368417
 21
7853.3972463707896
  0
LINE
  8
_1-3_画層1
  6
CONTINUOUS
 62
    7
 10
13729.725146368417
 20
7853.3972463707896
 11
13725.125146368422
 21
7851.1972463707907
  0
LINE
  8
_1-3_画層1
  6
CONTINUOUS
 62
    7
 10
13725.125146368422
 20
7851.1972463707907
 11
13720.62514636842
 21
7848.9972463707918
  0
LINE
  8
_1-3_画層1
  6
CONTINUOUS
 62
    7
 10
13720.62514636842
 20
7848.9972463707918
 11
13716.42514636842
 21
7846.5972463707913
  0
LINE
  8
_1-3_画層1
  6
CONTINUOUS
 62
    7
 10
13716.42514636842
 20
7846.5972463707913
 11
13712.325146368419
 21
7844.0972463707913
  0
LINE
  8
_1-3_画層1
  6
CONTINUOUS
 62
    7
 10
13712.325146368419
 20
7844.0972463707913
 11
13708.525146368418
 21
7841.49724637079
  0
LINE
  8
_1-3_画層1
  6
CONTINUOUS
 62
    7
 10
13708.525146368418
 20
7841.49724637079
 11
13704.92514636842
 21
7838.7972463707911
  0
LINE
  8
_1-3_画層1
  6
CONTINUOUS
 62
    7
 10
13704.92514636842
 20
7838.7972463707911
 11
13701.52514636842
 21
7835.9972463707918
  0
LINE
  8
_1-3_画層1
  6
CONTINUOUS
 62
    7
 10
13701.52514636842
 20
7835.9972463707918
 11
13698.42514636842
 21
7833.0972463707922
  0
LINE
  8
_1-3_画層1
  6
CONTINUOUS
 62
    7
 10
13698.42514636842
 20
7833.0972463707922
 11
13695.52514636842
 21
7830.0972463707922
  0
LINE
  8
_1-3_画層1
  6
CONTINUOUS
 62
    7
 10
13695.52514636842
 20
7830.0972463707922
 11
13692.925146368418
 21
7826.9972463707918
  0
LINE
  8
_1-3_画層1
  6
CONTINUOUS
 62
    7
 10
13692.925146368418
 20
7826.9972463707918
 11
13690.525146368422
 21
7823.7972463707902
  0
LINE
  8
_1-3_画層1
  6
CONTINUOUS
 62
    7
 10
13690.525146368422
 20
7823.7972463707902
 11
13688.42514636842
 21
7820.5972463707922
  0
LINE
  8
_1-3_画層1
  6
CONTINUOUS
 62
    7
 10
13688.42514636842
 20
7820.5972463707922
 11
13686.525146368418
 21
7817.2972463707911
  0
LINE
  8
_1-3_画層1
  6
CONTINUOUS
 62
    7
 10
13686.525146368418
 20
7817.2972463707911
 11
13685.02514636842
 21
7813.9972463707918
  0
LINE
  8
_1-3_画層1
  6
CONTINUOUS
 62
    7
 10
13685.02514636842
 20
7813.9972463707918
 11
13683.725146368419
 21
7810.6972463707907
  0
LINE
  8
_1-3_画層1
  6
CONTINUOUS
 62
    7
 10
13683.725146368419
 20
7810.6972463707907
 11
13682.725146368417
 21
7807.2972463707911
  0
LINE
  8
_1-3_画層1
  6
CONTINUOUS
 62
    7
 10
13682.725146368417
 20
7807.2972463707911
 11
13682.02514636842
 21
7803.7972463707883
  0
LINE
  8
_1-3_画層1
  6
CONTINUOUS
 62
    7
 10
13682.02514636842
 20
7803.7972463707883
 11
13681.52514636842
 21
7800.3972463707896
  0
LINE
  8
_1-3_画層1
  6
CONTINUOUS
 62
    7
 10
13681.52514636842
 20
7800.3972463707896
 11
13681.42514636842
 21
7796.9972463707909
  0
LINE
  8
_1-3_画層1
  6
CONTINUOUS
 62
    7
 10
13681.42514636842
 20
7796.9972463707909
 11
13681.52514636842
 21
7793.4972463707909
  0
LINE
  8
_1-3_画層1
  6
CONTINUOUS
 62
    7
 10
13681.52514636842
 20
7793.4972463707909
 11
13682.02514636842
 21
7790.0972463707913
  0
LINE
  8
_1-3_画層1
  6
CONTINUOUS
 62
    7
 10
13682.02514636842
 20
7790.0972463707913
 11
13682.725146368417
 21
7786.6972463707898
  0
LINE
  8
_1-3_画層1
  6
CONTINUOUS
 62
    7
 10
13682.725146368417
 20
7786.6972463707898
 11
13683.725146368419
 21
7783.2972463707902
  0
LINE
  8
_1-3_画層1
  6
CONTINUOUS
 62
    7
 10
13683.725146368419
 20
7783.2972463707902
 11
13685.02514636842
 21
7779.8972463707914
  0
LINE
  8
_1-3_画層1
  6
CONTINUOUS
 62
    7
 10
13685.02514636842
 20
7779.8972463707914
 11
13686.525146368418
 21
7776.5972463707922
  0
LINE
  8
_1-3_画層1
  6
CONTINUOUS
 62
    7
 10
13686.525146368418
 20
7776.5972463707922
 11
13688.42514636842
 21
7773.2972463707911
  0
LINE
  8
_1-3_画層1
  6
CONTINUOUS
 62
    7
 10
13688.42514636842
 20
7773.2972463707911
 11
13690.525146368422
 21
7770.0972463707894
  0
LINE
  8
_1-3_画層1
  6
CONTINUOUS
 62
    7
 10
13690.525146368422
 20
7770.0972463707894
 11
13692.925146368418
 21
7766.8972463707914
  0
LINE
  8
_1-3_画層1
  6
CONTINUOUS
 62
    7
 10
13692.925146368418
 20
7766.8972463707914
 11
13695.52514636842
 21
7763.8972463707914
  0
LINE
  8
_1-3_画層1
  6
CONTINUOUS
 62
    7
 10
13695.52514636842
 20
7763.8972463707914
 11
13698.42514636842
 21
7760.8972463707914
  0
LINE
  8
_1-3_画層1
  6
CONTINUOUS
 62
    7
 10
13698.42514636842
 20
7760.8972463707914
 11
13701.52514636842
 21
7757.8972463707914
  0
LINE
  8
_1-3_画層1
  6
CONTINUOUS
 62
    7
 10
13701.52514636842
 20
7757.8972463707914
 11
13704.92514636842
 21
7755.0972463707922
  0
LINE
  8
_1-3_画層1
  6
CONTINUOUS
 62
    7
 10
13704.92514636842
 20
7755.0972463707922
 11
13708.525146368418
 21
7752.3972463707905
  0
LINE
  8
_1-3_画層1
  6
CONTINUOUS
 62
    7
 10
13708.525146368418
 20
7752.3972463707905
 11
13712.325146368419
 21
7749.7972463707893
  0
LINE
  8
_1-3_画層1
  6
CONTINUOUS
 62
    7
 10
13712.325146368419
 20
7749.7972463707893
 11
13716.42514636842
 21
7747.2972463707893
  0
LINE
  8
_1-3_画層1
  6
CONTINUOUS
 62
    7
 10
13716.42514636842
 20
7747.2972463707893
 11
13720.62514636842
 21
7744.8972463707914
  0
LINE
  8
_1-3_画層1
  6
CONTINUOUS
 62
    7
 10
13720.62514636842
 20
7744.8972463707914
 11
13725.125146368422
 21
7742.6972463707898
  0
LINE
  8
_1-3_画層1
  6
CONTINUOUS
 62
    7
 10
13725.125146368422
 20
7742.6972463707898
 11
13729.725146368417
 21
7740.5972463707913
  0
LINE
  8
_1-3_画層1
  6
CONTINUOUS
 62
    7
 10
13729.725146368417
 20
7740.5972463707913
 11
13734.52514636842
 21
7738.5972463707903
  0
LINE
  8
_1-3_画層1
  6
CONTINUOUS
 62
    7
 10
13734.52514636842
 20
7738.5972463707903
 11
13739.425146368418
 21
7736.6972463707898
  0
LINE
  8
_1-3_画層1
  6
CONTINUOUS
 62
    7
 10
13739.425146368418
 20
7736.6972463707898
 11
13744.52514636842
 21
7734.99724637079
  0
LINE
  8
_1-3_画層1
  6
CONTINUOUS
 62
    7
 10
13744.52514636842
 20
7734.99724637079
 11
13749.825146368419
 21
7733.4972463707909
  0
LINE
  8
_1-3_画層1
  6
CONTINUOUS
 62
    7
 10
13749.825146368419
 20
7733.4972463707909
 11
13755.12514636842
 21
7732.0972463707903
  0
LINE
  8
_1-3_画層1
  6
CONTINUOUS
 62
    7
 10
13755.12514636842
 20
7732.0972463707903
 11
13760.62514636842
 21
7730.7972463707902
  0
LINE
  8
_1-3_画層1
  6
CONTINUOUS
 62
    7
 10
13760.62514636842
 20
7730.7972463707902
 11
13766.225146368419
 21
7729.7972463707911
  0
LINE
  8
_1-3_画層1
  6
CONTINUOUS
 62
    7
 10
13766.225146368419
 20
7729.7972463707911
 11
13771.825146368419
 21
7728.7972463707883
  0
LINE
  8
_1-3_画層1
  6
CONTINUOUS
 62
    7
 10
13771.825146368419
 20
7728.7972463707883
 11
13777.625146368418
 21
7728.0972463707913
  0
LINE
  8
_1-3_画層1
  6
CONTINUOUS
 62
    7
 10
13777.625146368418
 20
7728.0972463707913
 11
13783.325146368417
 21
7727.4972463707909
  0
LINE
  8
_1-3_画層1
  6
CONTINUOUS
 62
    7
 10
13783.325146368417
 20
7727.4972463707909
 11
13789.225146368417
 21
7727.0972463707922
  0
LINE
  8
_1-3_画層1
  6
CONTINUOUS
 62
    7
 10
13789.225146368417
 20
7727.0972463707922
 11
13795.02514636842
 21
7726.7972463707902
  0
LINE
  8
_1-3_画層1
  6
CONTINUOUS
 62
    7
 10
13795.02514636842
 20
7726.7972463707902
 11
13800.92514636842
 21
7726.6972463707898
  0
LINE
  8
_1-3_画層1
  6
CONTINUOUS
 62
    7
 10
13800.92514636842
 20
7726.6972463707898
 11
13806.725146368419
 21
7726.7972463707902
  0
LINE
  8
_1-3_画層1
  6
CONTINUOUS
 62
    7
 10
13806.725146368419
 20
7726.7972463707902
 11
13812.625146368422
 21
7727.0972463707922
  0
LINE
  8
_1-3_画層1
  6
CONTINUOUS
 62
    7
 10
13812.625146368422
 20
7727.0972463707922
 11
13818.425146368421
 21
7727.4972463707909
  0
LINE
  8
_1-3_画層1
  6
CONTINUOUS
 62
    7
 10
13818.425146368421
 20
7727.4972463707909
 11
13824.225146368421
 21
7728.0972463707913
  0
LINE
  8
_1-3_画層1
  6
CONTINUOUS
 62
    7
 10
13824.225146368421
 20
7728.0972463707913
 11
13829.92514636842
 21
7728.7972463707883
  0
LINE
  8
_1-3_画層1
  6
CONTINUOUS
 62
    7
 10
13829.92514636842
 20
7728.7972463707883
 11
13835.52514636842
 21
7729.7972463707911
  0
LINE
  8
_1-3_画層1
  6
CONTINUOUS
 62
    7
 10
13835.52514636842
 20
7729.7972463707911
 11
13841.12514636842
 21
7730.7972463707902
  0
LINE
  8
_1-3_画層1
  6
CONTINUOUS
 62
    7
 10
13841.12514636842
 20
7730.7972463707902
 11
13846.625146368422
 21
7732.0972463707903
  0
LINE
  8
_1-3_画層1
  6
CONTINUOUS
 62
    7
 10
13846.625146368422
 20
7732.0972463707903
 11
13851.925146368418
 21
7733.4972463707909
  0
LINE
  8
_1-3_画層1
  6
CONTINUOUS
 62
    7
 10
13851.925146368418
 20
7733.4972463707909
 11
13857.225146368419
 21
7734.99724637079
  0
LINE
  8
_1-3_画層1
  6
CONTINUOUS
 62
    7
 10
13857.225146368419
 20
7734.99724637079
 11
13862.325146368419
 21
7736.6972463707898
  0
LINE
  8
_1-3_画層1
  6
CONTINUOUS
 62
    7
 10
13862.325146368419
 20
7736.6972463707898
 11
13867.225146368417
 21
7738.5972463707903
  0
LINE
  8
_1-3_画層1
  6
CONTINUOUS
 62
    7
 10
13867.225146368417
 20
7738.5972463707903
 11
13872.02514636842
 21
7740.5972463707913
  0
LINE
  8
_1-3_画層1
  6
CONTINUOUS
 62
    7
 10
13872.02514636842
 20
7740.5972463707913
 11
13876.725146368417
 21
7742.6972463707898
  0
LINE
  8
_1-3_画層1
  6
CONTINUOUS
 62
    7
 10
13876.725146368417
 20
7742.6972463707898
 11
13881.125146368422
 21
7744.8972463707914
  0
LINE
  8
_1-3_画層1
  6
CONTINUOUS
 62
    7
 10
13881.125146368422
 20
7744.8972463707914
 11
13885.325146368419
 21
7747.2972463707893
  0
LINE
  8
_1-3_画層1
  6
CONTINUOUS
 62
    7
 10
13885.325146368419
 20
7747.2972463707893
 11
13889.425146368418
 21
7749.7972463707893
  0
LINE
  8
_1-3_画層1
  6
CONTINUOUS
 62
    7
 10
13889.425146368418
 20
7749.7972463707893
 11
13893.225146368419
 21
7752.3972463707905
  0
LINE
  8
_1-3_画層1
  6
CONTINUOUS
 62
    7
 10
13893.225146368419
 20
7752.3972463707905
 11
13896.825146368419
 21
7755.0972463707922
  0
LINE
  8
_1-3_画層1
  6
CONTINUOUS
 62
    7
 10
13896.825146368419
 20
7755.0972463707922
 11
13900.225146368419
 21
7757.8972463707914
  0
LINE
  8
_1-3_画層1
  6
CONTINUOUS
 62
    7
 10
13900.225146368419
 20
7757.8972463707914
 11
13903.325146368419
 21
7760.8972463707914
  0
LINE
  8
_1-3_画層1
  6
CONTINUOUS
 62
    7
 10
13903.325146368419
 20
7760.8972463707914
 11
13906.225146368419
 21
7763.8972463707914
  0
LINE
  8
_1-3_画層1
  6
CONTINUOUS
 62
    7
 10
13906.225146368419
 20
7763.8972463707914
 11
13908.925146368421
 21
7766.8972463707914
  0
LINE
  8
_1-3_画層1
  6
CONTINUOUS
 62
    7
 10
13908.925146368421
 20
7766.8972463707914
 11
13911.225146368417
 21
7770.0972463707894
  0
LINE
  8
_1-3_画層1
  6
CONTINUOUS
 62
    7
 10
13911.225146368417
 20
7770.0972463707894
 11
13913.325146368419
 21
7773.2972463707911
  0
LINE
  8
_1-3_画層1
  6
CONTINUOUS
 62
    7
 10
13913.325146368419
 20
7773.2972463707911
 11
13915.225146368419
 21
7776.5972463707922
  0
LINE
  8
_1-3_画層1
  6
CONTINUOUS
 62
    7
 10
13915.225146368419
 20
7776.5972463707922
 11
13916.725146368419
 21
7779.8972463707914
  0
LINE
  8
_1-3_画層1
  6
CONTINUOUS
 62
    7
 10
13916.725146368419
 20
7779.8972463707914
 11
13918.025146368418
 21
7783.2972463707902
  0
LINE
  8
_1-3_画層1
  6
CONTINUOUS
 62
    7
 10
13918.025146368418
 20
7783.2972463707902
 11
13919.02514636842
 21
7786.6972463707898
  0
LINE
  8
_1-3_画層1
  6
CONTINUOUS
 62
    7
 10
13919.02514636842
 20
7786.6972463707898
 11
13919.825146368419
 21
7790.0972463707913
  0
LINE
  8
_1-3_画層1
  6
CONTINUOUS
 62
    7
 10
13919.825146368419
 20
7790.0972463707913
 11
13920.225146368417
 21
7793.4972463707909
  0
LINE
  8
_1-3_画層1
  6
CONTINUOUS
 62
    7
 10
13920.225146368417
 20
7793.4972463707909
 11
13920.325146368417
 21
7796.9972463707909
  0
LINE
  8
_1-3_画層1
  6
CONTINUOUS
 62
    7
 10
13879.92514636842
 20
9015.7972463707902
 11
13879.825146368417
 21
9019.2972463707902
  0
LINE
  8
_1-3_画層1
  6
CONTINUOUS
 62
    7
 10
13879.825146368417
 20
9019.2972463707902
 11
13879.325146368419
 21
9022.6972463707898
  0
LINE
  8
_1-3_画層1
  6
CONTINUOUS
 62
    7
 10
13879.325146368419
 20
9022.6972463707898
 11
13878.62514636842
 21
9026.1972463707898
  0
LINE
  8
_1-3_画層1
  6
CONTINUOUS
 62
    7
 10
13878.62514636842
 20
9026.1972463707898
 11
13877.625146368418
 21
9029.4972463707909
  0
LINE
  8
_1-3_画層1
  6
CONTINUOUS
 62
    7
 10
13877.625146368418
 20
9029.4972463707909
 11
13876.325146368419
 21
9032.8972463707905
  0
LINE
  8
_1-3_画層1
  6
CONTINUOUS
 62
    7
 10
13876.325146368419
 20
9032.8972463707905
 11
13874.825146368419
 21
9036.1972463707898
  0
LINE
  8
_1-3_画層1
  6
CONTINUOUS
 62
    7
 10
13874.825146368419
 20
9036.1972463707898
 11
13872.92514636842
 21
9039.4972463707909
  0
LINE
  8
_1-3_画層1
  6
CONTINUOUS
 62
    7
 10
13872.92514636842
 20
9039.4972463707909
 11
13870.825146368417
 21
9042.6972463707898
  0
LINE
  8
_1-3_画層1
  6
CONTINUOUS
 62
    7
 10
13870.825146368417
 20
9042.6972463707898
 11
13868.425146368421
 21
9045.8972463707905
  0
LINE
  8
_1-3_画層1
  6
CONTINUOUS
 62
    7
 10
13868.425146368421
 20
9045.8972463707905
 11
13865.825146368419
 21
9048.9972463707909
  0
LINE
  8
_1-3_画層1
  6
CONTINUOUS
 62
    7
 10
13865.825146368419
 20
9048.9972463707909
 11
13862.92514636842
 21
9051.9972463707909
  0
LINE
  8
_1-3_画層1
  6
CONTINUOUS
 62
    7
 10
13862.92514636842
 20
9051.9972463707909
 11
13859.825146368419
 21
9054.8972463707905
  0
LINE
  8
_1-3_画層1
  6
CONTINUOUS
 62
    7
 10
13859.825146368419
 20
9054.8972463707905
 11
13856.42514636842
 21
9057.6972463707898
  0
LINE
  8
_1-3_画層1
  6
CONTINUOUS
 62
    7
 10
13856.42514636842
 20
9057.6972463707898
 11
13852.825146368419
 21
9060.3972463707905
  0
LINE
  8
_1-3_画層1
  6
CONTINUOUS
 62
    7
 10
13852.825146368419
 20
9060.3972463707905
 11
13849.025146368418
 21
9062.9972463707909
  0
LINE
  8
_1-3_画層1
  6
CONTINUOUS
 62
    7
 10
13849.025146368418
 20
9062.9972463707909
 11
13844.92514636842
 21
9065.4972463707909
  0
LINE
  8
_1-3_画層1
  6
CONTINUOUS
 62
    7
 10
13844.92514636842
 20
9065.4972463707909
 11
13840.725146368419
 21
9067.8972463707905
  0
LINE
  8
_1-3_画層1
  6
CONTINUOUS
 62
    7
 10
13840.725146368419
 20
9067.8972463707905
 11
13836.225146368417
 21
9070.0972463707913
  0
LINE
  8
_1-3_画層1
  6
CONTINUOUS
 62
    7
 10
13836.225146368417
 20
9070.0972463707913
 11
13831.62514636842
 21
9072.2972463707902
  0
LINE
  8
_1-3_画層1
  6
CONTINUOUS
 62
    7
 10
13831.62514636842
 20
9072.2972463707902
 11
13826.825146368417
 21
9074.1972463707898
  0
LINE
  8
_1-3_画層1
  6
CONTINUOUS
 62
    7
 10
13826.825146368417
 20
9074.1972463707898
 11
13821.92514636842
 21
9076.0972463707913
  0
LINE
  8
_1-3_画層1
  6
CONTINUOUS
 62
    7
 10
13821.92514636842
 20
9076.0972463707913
 11
13816.825146368419
 21
9077.7972463707902
  0
LINE
  8
_1-3_画層1
  6
CONTINUOUS
 62
    7
 10
13816.825146368419
 20
9077.7972463707902
 11
13811.525146368418
 21
9079.2972463707902
  0
LINE
  8
_1-3_画層1
  6
CONTINUOUS
 62
    7
 10
13811.525146368418
 20
9079.2972463707902
 11
13806.225146368419
 21
9080.6972463707898
  0
LINE
  8
_1-3_画層1
  6
CONTINUOUS
 62
    7
 10
13806.225146368419
 20
9080.6972463707898
 11
13800.725146368419
 21
9081.9972463707909
  0
LINE
  8
_1-3_画層1
  6
CONTINUOUS
 62
    7
 10
13800.725146368419
 20
9081.9972463707909
 11
13795.12514636842
 21
9083.0972463707913
  0
LINE
  8
_1-3_画層1
  6
CONTINUOUS
 62
    7
 10
13795.12514636842
 20
9083.0972463707913
 11
13789.525146368418
 21
9083.9972463707909
  0
LINE
  8
_1-3_画層1
  6
CONTINUOUS
 62
    7
 10
13789.525146368418
 20
9083.9972463707909
 11
13783.825146368421
 21
9084.6972463707898
  0
LINE
  8
_1-3_画層1
  6
CONTINUOUS
 62
    7
 10
13783.825146368421
 20
9084.6972463707898
 11
13778.025146368422
 21
9085.2972463707902
  0
LINE
  8
_1-3_画層1
  6
CONTINUOUS
 62
    7
 10
13778.025146368422
 20
9085.2972463707902
 11
13772.225146368419
 21
9085.6972463707898
  0
LINE
  8
_1-3_画層1
  6
CONTINUOUS
 62
    7
 10
13772.225146368419
 20
9085.6972463707898
 11
13766.325146368419
 21
9085.9972463707909
  0
LINE
  8
_1-3_画層1
  6
CONTINUOUS
 62
    7
 10
13766.325146368419
 20
9085.9972463707909
 11
13760.52514636842
 21
9086.0972463707913
  0
LINE
  8
_1-3_画層1
  6
CONTINUOUS
 62
    7
 10
13760.52514636842
 20
9086.0972463707913
 11
13754.62514636842
 21
9085.9972463707909
  0
LINE
  8
_1-3_画層1
  6
CONTINUOUS
 62
    7
 10
13754.62514636842
 20
9085.9972463707909
 11
13748.725146368417
 21
9085.6972463707898
  0
LINE
  8
_1-3_画層1
  6
CONTINUOUS
 62
    7
 10
13748.725146368417
 20
9085.6972463707898
 11
13742.925146368418
 21
9085.2972463707902
  0
LINE
  8
_1-3_画層1
  6
CONTINUOUS
 62
    7
 10
13742.925146368418
 20
9085.2972463707902
 11
13737.125146368418
 21
9084.6972463707898
  0
LINE
  8
_1-3_画層1
  6
CONTINUOUS
 62
    7
 10
13737.125146368418
 20
9084.6972463707898
 11
13731.42514636842
 21
9083.9972463707909
  0
LINE
  8
_1-3_画層1
  6
CONTINUOUS
 62
    7
 10
13731.42514636842
 20
9083.9972463707909
 11
13725.825146368419
 21
9083.0972463707913
  0
LINE
  8
_1-3_画層1
  6
CONTINUOUS
 62
    7
 10
13725.825146368419
 20
9083.0972463707913
 11
13720.225146368417
 21
9081.9972463707909
  0
LINE
  8
_1-3_画層1
  6
CONTINUOUS
 62
    7
 10
13720.225146368417
 20
9081.9972463707909
 11
13714.725146368421
 21
9080.6972463707898
  0
LINE
  8
_1-3_画層1
  6
CONTINUOUS
 62
    7
 10
13714.725146368421
 20
9080.6972463707898
 11
13709.42514636842
 21
9079.2972463707902
  0
LINE
  8
_1-3_画層1
  6
CONTINUOUS
 62
    7
 10
13709.42514636842
 20
9079.2972463707902
 11
13704.12514636842
 21
9077.7972463707902
  0
LINE
  8
_1-3_画層1
  6
CONTINUOUS
 62
    7
 10
13704.12514636842
 20
9077.7972463707902
 11
13699.025146368418
 21
9076.0972463707913
  0
LINE
  8
_1-3_画層1
  6
CONTINUOUS
 62
    7
 10
13699.025146368418
 20
9076.0972463707913
 11
13694.12514636842
 21
9074.1972463707898
  0
LINE
  8
_1-3_画層1
  6
CONTINUOUS
 62
    7
 10
13694.12514636842
 20
9074.1972463707898
 11
13689.325146368417
 21
9072.2972463707902
  0
LINE
  8
_1-3_画層1
  6
CONTINUOUS
 62
    7
 10
13689.325146368417
 20
9072.2972463707902
 11
13684.725146368419
 21
9070.0972463707913
  0
LINE
  8
_1-3_画層1
  6
CONTINUOUS
 62
    7
 10
13684.725146368419
 20
9070.0972463707913
 11
13680.225146368421
 21
9067.8972463707905
  0
LINE
  8
_1-3_画層1
  6
CONTINUOUS
 62
    7
 10
13680.225146368421
 20
9067.8972463707905
 11
13676.02514636842
 21
9065.4972463707909
  0
LINE
  8
_1-3_画層1
  6
CONTINUOUS
 62
    7
 10
13676.02514636842
 20
9065.4972463707909
 11
13671.92514636842
 21
9062.9972463707909
  0
LINE
  8
_1-3_画層1
  6
CONTINUOUS
 62
    7
 10
13671.92514636842
 20
9062.9972463707909
 11
13668.125146368418
 21
9060.3972463707905
  0
LINE
  8
_1-3_画層1
  6
CONTINUOUS
 62
    7
 10
13668.125146368418
 20
9060.3972463707905
 11
13664.525146368418
 21
9057.6972463707898
  0
LINE
  8
_1-3_画層1
  6
CONTINUOUS
 62
    7
 10
13664.525146368418
 20
9057.6972463707898
 11
13661.12514636842
 21
9054.8972463707905
  0
LINE
  8
_1-3_画層1
  6
CONTINUOUS
 62
    7
 10
13661.12514636842
 20
9054.8972463707905
 11
13658.02514636842
 21
9051.9972463707909
  0
LINE
  8
_1-3_画層1
  6
CONTINUOUS
 62
    7
 10
13658.02514636842
 20
9051.9972463707909
 11
13655.12514636842
 21
9048.9972463707909
  0
LINE
  8
_1-3_画層1
  6
CONTINUOUS
 62
    7
 10
13655.12514636842
 20
9048.9972463707909
 11
13652.525146368418
 21
9045.8972463707905
  0
LINE
  8
_1-3_画層1
  6
CONTINUOUS
 62
    7
 10
13652.525146368418
 20
9045.8972463707905
 11
13650.125146368422
 21
9042.6972463707898
  0
LINE
  8
_1-3_画層1
  6
CONTINUOUS
 62
    7
 10
13650.125146368422
 20
9042.6972463707898
 11
13648.02514636842
 21
9039.4972463707909
  0
LINE
  8
_1-3_画層1
  6
CONTINUOUS
 62
    7
 10
13648.02514636842
 20
9039.4972463707909
 11
13646.125146368418
 21
9036.1972463707898
  0
LINE
  8
_1-3_画層1
  6
CONTINUOUS
 62
    7
 10
13646.125146368418
 20
9036.1972463707898
 11
13644.62514636842
 21
9032.8972463707905
  0
LINE
  8
_1-3_画層1
  6
CONTINUOUS
 62
    7
 10
13644.62514636842
 20
9032.8972463707905
 11
13643.325146368421
 21
9029.4972463707909
  0
LINE
  8
_1-3_画層1
  6
CONTINUOUS
 62
    7
 10
13643.325146368421
 20
9029.4972463707909
 11
13642.325146368417
 21
9026.1972463707898
  0
LINE
  8
_1-3_画層1
  6
CONTINUOUS
 62
    7
 10
13642.325146368417
 20
9026.1972463707898
 11
13641.62514636842
 21
9022.6972463707898
  0
LINE
  8
_1-3_画層1
  6
CONTINUOUS
 62
    7
 10
13641.62514636842
 20
9022.6972463707898
 11
13641.12514636842
 21
9019.2972463707902
  0
LINE
  8
_1-3_画層1
  6
CONTINUOUS
 62
    7
 10
13641.12514636842
 20
9019.2972463707902
 11
13641.02514636842
 21
9015.7972463707902
  0
LINE
  8
_1-3_画層1
  6
CONTINUOUS
 62
    7
 10
13641.02514636842
 20
9015.7972463707902
 11
13641.12514636842
 21
9012.3972463707905
  0
LINE
  8
_1-3_画層1
  6
CONTINUOUS
 62
    7
 10
13641.12514636842
 20
9012.3972463707905
 11
13641.62514636842
 21
9008.9972463707909
  0
LINE
  8
_1-3_画層1
  6
CONTINUOUS
 62
    7
 10
13641.62514636842
 20
9008.9972463707909
 11
13642.325146368417
 21
9005.4972463707909
  0
LINE
  8
_1-3_画層1
  6
CONTINUOUS
 62
    7
 10
13642.325146368417
 20
9005.4972463707909
 11
13643.325146368421
 21
9002.0972463707913
  0
LINE
  8
_1-3_画層1
  6
CONTINUOUS
 62
    7
 10
13643.325146368421
 20
9002.0972463707913
 11
13644.62514636842
 21
8998.7972463707902
  0
LINE
  8
_1-3_画層1
  6
CONTINUOUS
 62
    7
 10
13644.62514636842
 20
8998.7972463707902
 11
13646.125146368418
 21
8995.4972463707909
  0
LINE
  8
_1-3_画層1
  6
CONTINUOUS
 62
    7
 10
13646.125146368418
 20
8995.4972463707909
 11
13648.02514636842
 21
8992.1972463707898
  0
LINE
  8
_1-3_画層1
  6
CONTINUOUS
 62
    7
 10
13648.02514636842
 20
8992.1972463707898
 11
13650.125146368422
 21
8988.9972463707909
  0
LINE
  8
_1-3_画層1
  6
CONTINUOUS
 62
    7
 10
13650.125146368422
 20
8988.9972463707909
 11
13652.525146368418
 21
8985.7972463707902
  0
LINE
  8
_1-3_画層1
  6
CONTINUOUS
 62
    7
 10
13652.525146368418
 20
8985.7972463707902
 11
13655.12514636842
 21
8982.6972463707898
  0
LINE
  8
_1-3_画層1
  6
CONTINUOUS
 62
    7
 10
13655.12514636842
 20
8982.6972463707898
 11
13658.02514636842
 21
8979.6972463707898
  0
LINE
  8
_1-3_画層1
  6
CONTINUOUS
 62
    7
 10
13658.02514636842
 20
8979.6972463707898
 11
13661.12514636842
 21
8976.7972463707902
  0
LINE
  8
_1-3_画層1
  6
CONTINUOUS
 62
    7
 10
13661.12514636842
 20
8976.7972463707902
 11
13664.525146368418
 21
8973.9972463707909
  0
LINE
  8
_1-3_画層1
  6
CONTINUOUS
 62
    7
 10
13664.525146368418
 20
8973.9972463707909
 11
13668.125146368418
 21
8971.2972463707902
  0
LINE
  8
_1-3_画層1
  6
CONTINUOUS
 62
    7
 10
13668.125146368418
 20
8971.2972463707902
 11
13671.92514636842
 21
8968.6972463707898
  0
LINE
  8
_1-3_画層1
  6
CONTINUOUS
 62
    7
 10
13671.92514636842
 20
8968.6972463707898
 11
13676.02514636842
 21
8966.1972463707898
  0
LINE
  8
_1-3_画層1
  6
CONTINUOUS
 62
    7
 10
13676.02514636842
 20
8966.1972463707898
 11
13680.225146368421
 21
8963.7972463707902
  0
LINE
  8
_1-3_画層1
  6
CONTINUOUS
 62
    7
 10
13680.225146368421
 20
8963.7972463707902
 11
13684.725146368419
 21
8961.5972463707913
  0
LINE
  8
_1-3_画層1
  6
CONTINUOUS
 62
    7
 10
13684.725146368419
 20
8961.5972463707913
 11
13689.325146368417
 21
8959.3972463707905
  0
LINE
  8
_1-3_画層1
  6
CONTINUOUS
 62
    7
 10
13689.325146368417
 20
8959.3972463707905
 11
13694.12514636842
 21
8957.4972463707909
  0
LINE
  8
_1-3_画層1
  6
CONTINUOUS
 62
    7
 10
13694.12514636842
 20
8957.4972463707909
 11
13699.025146368418
 21
8955.5972463707913
  0
LINE
  8
_1-3_画層1
  6
CONTINUOUS
 62
    7
 10
13699.025146368418
 20
8955.5972463707913
 11
13704.12514636842
 21
8953.8972463707905
  0
LINE
  8
_1-3_画層1
  6
CONTINUOUS
 62
    7
 10
13704.12514636842
 20
8953.8972463707905
 11
13709.42514636842
 21
8952.3972463707905
  0
LINE
  8
_1-3_画層1
  6
CONTINUOUS
 62
    7
 10
13709.42514636842
 20
8952.3972463707905
 11
13714.725146368421
 21
8950.9972463707909
  0
LINE
  8
_1-3_画層1
  6
CONTINUOUS
 62
    7
 10
13714.725146368421
 20
8950.9972463707909
 11
13720.225146368417
 21
8949.6972463707898
  0
LINE
  8
_1-3_画層1
  6
CONTINUOUS
 62
    7
 10
13720.225146368417
 20
8949.6972463707898
 11
13725.825146368419
 21
8948.5972463707913
  0
LINE
  8
_1-3_画層1
  6
CONTINUOUS
 62
    7
 10
13725.825146368419
 20
8948.5972463707913
 11
13731.42514636842
 21
8947.6972463707898
  0
LINE
  8
_1-3_画層1
  6
CONTINUOUS
 62
    7
 10
13731.42514636842
 20
8947.6972463707898
 11
13737.125146368418
 21
8946.9972463707909
  0
LINE
  8
_1-3_画層1
  6
CONTINUOUS
 62
    7
 10
13737.125146368418
 20
8946.9972463707909
 11
13742.925146368418
 21
8946.3972463707905
  0
LINE
  8
_1-3_画層1
  6
CONTINUOUS
 62
    7
 10
13742.925146368418
 20
8946.3972463707905
 11
13748.725146368417
 21
8945.9972463707909
  0
LINE
  8
_1-3_画層1
  6
CONTINUOUS
 62
    7
 10
13748.725146368417
 20
8945.9972463707909
 11
13754.62514636842
 21
8945.6972463707898
  0
LINE
  8
_1-3_画層1
  6
CONTINUOUS
 62
    7
 10
13754.62514636842
 20
8945.6972463707898
 11
13760.52514636842
 21
8945.5972463707913
  0
LINE
  8
_1-3_画層1
  6
CONTINUOUS
 62
    7
 10
13760.52514636842
 20
8945.5972463707913
 11
13766.325146368419
 21
8945.6972463707898
  0
LINE
  8
_1-3_画層1
  6
CONTINUOUS
 62
    7
 10
13766.325146368419
 20
8945.6972463707898
 11
13772.225146368419
 21
8945.9972463707909
  0
LINE
  8
_1-3_画層1
  6
CONTINUOUS
 62
    7
 10
13772.225146368419
 20
8945.9972463707909
 11
13778.025146368422
 21
8946.3972463707905
  0
LINE
  8
_1-3_画層1
  6
CONTINUOUS
 62
    7
 10
13778.025146368422
 20
8946.3972463707905
 11
13783.825146368421
 21
8946.9972463707909
  0
LINE
  8
_1-3_画層1
  6
CONTINUOUS
 62
    7
 10
13783.825146368421
 20
8946.9972463707909
 11
13789.525146368418
 21
8947.6972463707898
  0
LINE
  8
_1-3_画層1
  6
CONTINUOUS
 62
    7
 10
13789.525146368418
 20
8947.6972463707898
 11
13795.12514636842
 21
8948.5972463707913
  0
LINE
  8
_1-3_画層1
  6
CONTINUOUS
 62
    7
 10
13795.12514636842
 20
8948.5972463707913
 11
13800.725146368419
 21
8949.6972463707898
  0
LINE
  8
_1-3_画層1
  6
CONTINUOUS
 62
    7
 10
13800.725146368419
 20
8949.6972463707898
 11
13806.225146368419
 21
8950.9972463707909
  0
LINE
  8
_1-3_画層1
  6
CONTINUOUS
 62
    7
 10
13806.225146368419
 20
8950.9972463707909
 11
13811.525146368418
 21
8952.3972463707905
  0
LINE
  8
_1-3_画層1
  6
CONTINUOUS
 62
    7
 10
13811.525146368418
 20
8952.3972463707905
 11
13816.825146368419
 21
8953.8972463707905
  0
LINE
  8
_1-3_画層1
  6
CONTINUOUS
 62
    7
 10
13816.825146368419
 20
8953.8972463707905
 11
13821.92514636842
 21
8955.5972463707913
  0
LINE
  8
_1-3_画層1
  6
CONTINUOUS
 62
    7
 10
13821.92514636842
 20
8955.5972463707913
 11
13826.825146368417
 21
8957.4972463707909
  0
LINE
  8
_1-3_画層1
  6
CONTINUOUS
 62
    7
 10
13826.825146368417
 20
8957.4972463707909
 11
13831.62514636842
 21
8959.3972463707905
  0
LINE
  8
_1-3_画層1
  6
CONTINUOUS
 62
    7
 10
13831.62514636842
 20
8959.3972463707905
 11
13836.225146368417
 21
8961.5972463707913
  0
LINE
  8
_1-3_画層1
  6
CONTINUOUS
 62
    7
 10
13836.225146368417
 20
8961.5972463707913
 11
13840.725146368419
 21
8963.7972463707902
  0
LINE
  8
_1-3_画層1
  6
CONTINUOUS
 62
    7
 10
13840.725146368419
 20
8963.7972463707902
 11
13844.92514636842
 21
8966.1972463707898
  0
LINE
  8
_1-3_画層1
  6
CONTINUOUS
 62
    7
 10
13844.92514636842
 20
8966.1972463707898
 11
13849.025146368418
 21
8968.6972463707898
  0
LINE
  8
_1-3_画層1
  6
CONTINUOUS
 62
    7
 10
13849.025146368418
 20
8968.6972463707898
 11
13852.825146368419
 21
8971.2972463707902
  0
LINE
  8
_1-3_画層1
  6
CONTINUOUS
 62
    7
 10
13852.825146368419
 20
8971.2972463707902
 11
13856.42514636842
 21
8973.9972463707909
  0
LINE
  8
_1-3_画層1
  6
CONTINUOUS
 62
    7
 10
13856.42514636842
 20
8973.9972463707909
 11
13859.825146368419
 21
8976.7972463707902
  0
LINE
  8
_1-3_画層1
  6
CONTINUOUS
 62
    7
 10
13859.825146368419
 20
8976.7972463707902
 11
13862.92514636842
 21
8979.6972463707898
  0
LINE
  8
_1-3_画層1
  6
CONTINUOUS
 62
    7
 10
13862.92514636842
 20
8979.6972463707898
 11
13865.825146368419
 21
8982.6972463707898
  0
LINE
  8
_1-3_画層1
  6
CONTINUOUS
 62
    7
 10
13865.825146368419
 20
8982.6972463707898
 11
13868.425146368421
 21
8985.7972463707902
  0
LINE
  8
_1-3_画層1
  6
CONTINUOUS
 62
    7
 10
13868.425146368421
 20
8985.7972463707902
 11
13870.825146368417
 21
8988.9972463707909
  0
LINE
  8
_1-3_画層1
  6
CONTINUOUS
 62
    7
 10
13870.825146368417
 20
8988.9972463707909
 11
13872.92514636842
 21
8992.1972463707898
  0
LINE
  8
_1-3_画層1
  6
CONTINUOUS
 62
    7
 10
13872.92514636842
 20
8992.1972463707898
 11
13874.825146368419
 21
8995.4972463707909
  0
LINE
  8
_1-3_画層1
  6
CONTINUOUS
 62
    7
 10
13874.825146368419
 20
8995.4972463707909
 11
13876.325146368419
 21
8998.7972463707902
  0
LINE
  8
_1-3_画層1
  6
CONTINUOUS
 62
    7
 10
13876.325146368419
 20
8998.7972463707902
 11
13877.625146368418
 21
9002.0972463707913
  0
LINE
  8
_1-3_画層1
  6
CONTINUOUS
 62
    7
 10
13877.625146368418
 20
9002.0972463707913
 11
13878.62514636842
 21
9005.4972463707909
  0
LINE
  8
_1-3_画層1
  6
CONTINUOUS
 62
    7
 10
13878.62514636842
 20
9005.4972463707909
 11
13879.325146368419
 21
9008.9972463707909
  0
LINE
  8
_1-3_画層1
  6
CONTINUOUS
 62
    7
 10
13879.325146368419
 20
9008.9972463707909
 11
13879.825146368417
 21
9012.3972463707905
  0
LINE
  8
_1-3_画層1
  6
CONTINUOUS
 62
    7
 10
13879.825146368417
 20
9012.3972463707905
 11
13879.92514636842
 21
9015.7972463707902
  0
INSERT
  2
-211-_U256
  8
_0-4_______
 10
1418.4251463684177
 20
23716.897246370791
 41
1
 42
1
 50
0
  0
INSERT
  2
-212-_U257
  8
_0-4_______
 10
1418.4251463684177
 20
23716.897246370791
 41
1
 42
1
 50
0
  0
INSERT
  2
-213-_X258
  8
_0-4_______
 10
1418.4251463684177
 20
23716.897246370791
 41
1
 42
1
 50
0
  0
INSERT
  2
-214-_X259
  8
_0-4_______
 10
1418.4251463684177
 20
23716.897246370791
 41
1
 42
1
 50
0
  0
INSERT
  2
-215-_U260
  8
_0-4_______
 10
1418.4251463684177
 20
23716.897246370791
 41
1
 42
1
 50
0
  0
INSERT
  2
-216-_U261
  8
_0-4_______
 10
1418.4251463684177
 20
23716.897246370791
 41
1
 42
1
 50
0
  0
INSERT
  2
-217-_U262
  8
_0-4_______
 10
1418.4251463684177
 20
23716.897246370791
 41
1
 42
1
 50
0
  0
INSERT
  2
-218-_U263
  8
_0-4_______
 10
1418.4251463684177
 20
23716.897246370791
 41
1
 42
1
 50
0
  0
INSERT
  2
-219-_U264
  8
_0-4_______
 10
1418.4251463684177
 20
23716.897246370791
 41
1
 42
1
 50
0
  0
INSERT
  2
-220-_U265
  8
_0-4_______
 10
1418.4251463684177
 20
23716.897246370791
 41
1
 42
1
 50
0
  0
INSERT
  2
-221-_U266
  8
_0-4_______
 10
1418.4251463684177
 20
23716.897246370791
 41
1
 42
1
 50
0
  0
INSERT
  2
-222-_U267
  8
_0-4_______
 10
1418.4251463684177
 20
23716.897246370791
 41
1
 42
1
 50
0
  0
INSERT
  2
-223-_U268
  8
_0-4_______
 10
1418.4251463684177
 20
23716.897246370791
 41
1
 42
1
 50
0
  0
INSERT
  2
-224-_U269
  8
_0-4_______
 10
1418.4251463684177
 20
23716.897246370791
 41
1
 42
1
 50
0
  0
ENDSEC
  0
EOF
